0
SECTION
2
HEADER
9
$LTSCALE
40
1.0
9
$LIMMIN
10
1615
20
0
9
$LIMMAX
10
9733
20
2919
9
$EXTMIN
10
1615
20
0
9
$EXTMAX
10
9733
20
2919
9
$SNAPMODE
70
0
9
$SNAPUNIT
10
1.0
20
1.0
9
$GRIDMODE
70
0
9
$GRIDUNIT
10
1.0
20
1.0
9
$ORTHOMODE
70
0
9
$TEXTSTYLE
7
txt
9
$CLAYER
8
1
9
$CECOLOR
62
7
9
$CELTYPE
6
CONTINUOUS
9
$PLINEWID
40
0.0
9
$OSMODE
70
0
9
$FILLMODE
70
1
9
$CHAMFERA
40
0.5
9
$CHAMFERB
40
0.5
9
$SCOORDS
70
1
9
$FILLETRAD
40
0.5
9
$INSBASE
10
0.0
20
0.0
9
$SPLFRAME
70
0
9
$SPLINESEGS
70
8
0
ENDSEC
0
SECTION
2
TABLES
0
TABLE
2
LTYPE
70
9
0
LTYPE
2
CONTINUOUS
70
64
3
Solid line
72
65
73
0
40
0.0
0
ENDTAB
0
TABLE
2
STYLE
70
1
0
STYLE
2
ROMANS
70
0
40
0.000
41
1.000
50
0.000
71
0
42
0.000
3
ROMANS
4

0
ENDTAB
0
TABLE
2
LAYER
70
10
0
LAYER
2
1
70
0
62
7
6
CONTINUOUS
0
LAYER
2
2
70
0
62
7
6
CONTINUOUS
0
LAYER
2
3
70
0
62
7
6
CONTINUOUS
0
LAYER
2
4
70
0
62
7
6
CONTINUOUS
0
LAYER
2
5
70
0
62
7
6
CONTINUOUS
0
LAYER
2
6
70
0
62
7
6
CONTINUOUS
0
LAYER
2
7
70
0
62
7
6
CONTINUOUS
0
LAYER
2
8
70
0
62
7
6
CONTINUOUS
0
LAYER
2
9
70
0
62
7
6
CONTINUOUS
0
LAYER
2
10
70
0
62
7
6
CONTINUOUS
0
ENDTAB
0
ENDSEC
0
SECTION
2
ENTITIES
0
POLYLINE
8
0
62
251
66
1
40
1
41
1
0
VERTEX
8
0
10
9733
20
980
0
VERTEX
8
0
10
9733
20
1000
0
VERTEX
8
0
10
9693
20
1000
0
VERTEX
8
0
10
9693
20
980
0
VERTEX
8
0
10
9713
20
980
0
VERTEX
8
0
10
9733
20
980
0
SEQEND
0
POLYLINE
8
0
62
254
66
1
40
1
41
1
0
VERTEX
8
0
10
9553
20
2479
0
VERTEX
8
0
10
9533
20
2479
0
VERTEX
8
0
10
9533
20
2219
0
VERTEX
8
0
10
9553
20
2219
0
VERTEX
8
0
10
9553
20
2479
0
SEQEND
0
POLYLINE
8
0
62
254
66
1
40
1
41
1
0
VERTEX
8
0
10
9313
20
2479
0
VERTEX
8
0
10
9293
20
2479
0
VERTEX
8
0
10
9293
20
2219
0
VERTEX
8
0
10
9313
20
2219
0
VERTEX
8
0
10
9313
20
2479
0
SEQEND
0
POLYLINE
8
0
62
254
66
1
40
1
41
1
0
VERTEX
8
0
10
9313
20
2219
0
VERTEX
8
0
10
9293
20
2219
0
VERTEX
8
0
10
9293
20
2159
0
VERTEX
8
0
10
9313
20
2159
0
VERTEX
8
0
10
9313
20
2199
0
VERTEX
8
0
10
9313
20
2219
0
SEQEND
0
POLYLINE
8
0
62
255
66
1
40
1
41
1
0
VERTEX
8
0
10
9313
20
2199
0
VERTEX
8
0
10
9313
20
2159
0
VERTEX
8
0
10
9533
20
2159
0
VERTEX
8
0
10
9533
20
2199
0
VERTEX
8
0
10
9313
20
2199
0
SEQEND
0
POLYLINE
8
0
62
254
66
1
40
1
41
1
0
VERTEX
8
0
10
9313
20
2159
0
VERTEX
8
0
10
9293
20
2159
0
VERTEX
8
0
10
9293
20
2119
0
VERTEX
8
0
10
9313
20
2119
0
VERTEX
8
0
10
9313
20
2159
0
SEQEND
0
POLYLINE
8
0
62
254
66
1
40
1
41
1
0
VERTEX
8
0
10
9313
20
2119
0
VERTEX
8
0
10
9293
20
2119
0
VERTEX
8
0
10
9293
20
2079
0
VERTEX
8
0
10
9313
20
2079
0
VERTEX
8
0
10
9313
20
2119
0
SEQEND
0
POLYLINE
8
0
62
255
66
1
40
1
41
1
0
VERTEX
8
0
10
9313
20
2159
0
VERTEX
8
0
10
9313
20
2119
0
VERTEX
8
0
10
9533
20
2119
0
VERTEX
8
0
10
9533
20
2159
0
VERTEX
8
0
10
9313
20
2159
0
SEQEND
0
POLYLINE
8
0
62
253
66
1
40
1
41
1
0
VERTEX
8
0
10
9293
20
2079
0
VERTEX
8
0
10
9293
20
2039
0
VERTEX
8
0
10
9313
20
2039
0
VERTEX
8
0
10
9313
20
2079
0
VERTEX
8
0
10
9293
20
2079
0
SEQEND
0
POLYLINE
8
0
62
255
66
1
40
1
41
1
0
VERTEX
8
0
10
9313
20
2079
0
VERTEX
8
0
10
9313
20
2039
0
VERTEX
8
0
10
9533
20
2039
0
VERTEX
8
0
10
9533
20
2079
0
VERTEX
8
0
10
9313
20
2079
0
SEQEND
0
POLYLINE
8
0
62
253
66
1
40
1
41
1
0
VERTEX
8
0
10
9313
20
2039
0
VERTEX
8
0
10
9293
20
2039
0
VERTEX
8
0
10
9293
20
1999
0
VERTEX
8
0
10
9313
20
1999
0
VERTEX
8
0
10
9313
20
2039
0
SEQEND
0
POLYLINE
8
0
62
253
66
1
40
1
41
1
0
VERTEX
8
0
10
9293
20
1999
0
VERTEX
8
0
10
9293
20
1959
0
VERTEX
8
0
10
9313
20
1959
0
VERTEX
8
0
10
9313
20
1979
0
VERTEX
8
0
10
9313
20
1999
0
VERTEX
8
0
10
9293
20
1999
0
SEQEND
0
POLYLINE
8
0
62
254
66
1
40
1
41
1
0
VERTEX
8
0
10
9313
20
1979
0
VERTEX
8
0
10
9313
20
1959
0
VERTEX
8
0
10
9313
20
1939
0
VERTEX
8
0
10
9533
20
1939
0
VERTEX
8
0
10
9533
20
1959
0
VERTEX
8
0
10
9533
20
1979
0
VERTEX
8
0
10
9313
20
1979
0
SEQEND
0
POLYLINE
8
0
62
255
66
1
40
1
41
1
0
VERTEX
8
0
10
9313
20
1999
0
VERTEX
8
0
10
9313
20
1979
0
VERTEX
8
0
10
9533
20
1979
0
VERTEX
8
0
10
9533
20
1999
0
VERTEX
8
0
10
9313
20
1999
0
SEQEND
0
POLYLINE
8
0
62
253
66
1
40
1
41
1
0
VERTEX
8
0
10
9313
20
1959
0
VERTEX
8
0
10
9293
20
1959
0
VERTEX
8
0
10
9293
20
1899
0
VERTEX
8
0
10
9313
20
1899
0
VERTEX
8
0
10
9313
20
1919
0
VERTEX
8
0
10
9313
20
1939
0
VERTEX
8
0
10
9313
20
1959
0
SEQEND
0
POLYLINE
8
0
62
255
66
1
40
1
41
1
0
VERTEX
8
0
10
9313
20
2039
0
VERTEX
8
0
10
9313
20
1999
0
VERTEX
8
0
10
9533
20
1999
0
VERTEX
8
0
10
9533
20
2039
0
VERTEX
8
0
10
9313
20
2039
0
SEQEND
0
POLYLINE
8
0
62
255
66
1
40
1
41
1
0
VERTEX
8
0
10
9313
20
2119
0
VERTEX
8
0
10
9313
20
2079
0
VERTEX
8
0
10
9533
20
2079
0
VERTEX
8
0
10
9533
20
2119
0
VERTEX
8
0
10
9313
20
2119
0
SEQEND
0
POLYLINE
8
0
62
255
66
1
40
1
41
1
0
VERTEX
8
0
10
9313
20
2219
0
VERTEX
8
0
10
9313
20
2199
0
VERTEX
8
0
10
9533
20
2199
0
VERTEX
8
0
10
9533
20
2219
0
VERTEX
8
0
10
9533
20
2479
0
VERTEX
8
0
10
9313
20
2479
0
VERTEX
8
0
10
9313
20
2219
0
SEQEND
0
POLYLINE
8
0
62
254
66
1
40
1
41
1
0
VERTEX
8
0
10
9553
20
2219
0
VERTEX
8
0
10
9533
20
2219
0
VERTEX
8
0
10
9533
20
2199
0
VERTEX
8
0
10
9533
20
2159
0
VERTEX
8
0
10
9553
20
2159
0
VERTEX
8
0
10
9553
20
2219
0
SEQEND
0
POLYLINE
8
0
62
254
66
1
40
1
41
1
0
VERTEX
8
0
10
9553
20
2159
0
VERTEX
8
0
10
9533
20
2159
0
VERTEX
8
0
10
9533
20
2119
0
VERTEX
8
0
10
9553
20
2119
0
VERTEX
8
0
10
9553
20
2159
0
SEQEND
0
POLYLINE
8
0
62
254
66
1
40
1
41
1
0
VERTEX
8
0
10
9553
20
2119
0
VERTEX
8
0
10
9533
20
2119
0
VERTEX
8
0
10
9533
20
2079
0
VERTEX
8
0
10
9553
20
2079
0
VERTEX
8
0
10
9553
20
2119
0
SEQEND
0
POLYLINE
8
0
62
253
66
1
40
1
41
1
0
VERTEX
8
0
10
9553
20
2079
0
VERTEX
8
0
10
9533
20
2079
0
VERTEX
8
0
10
9533
20
2039
0
VERTEX
8
0
10
9553
20
2039
0
VERTEX
8
0
10
9553
20
2079
0
SEQEND
0
POLYLINE
8
0
62
253
66
1
40
1
41
1
0
VERTEX
8
0
10
9553
20
2039
0
VERTEX
8
0
10
9533
20
2039
0
VERTEX
8
0
10
9533
20
1999
0
VERTEX
8
0
10
9553
20
1999
0
VERTEX
8
0
10
9553
20
2039
0
SEQEND
0
POLYLINE
8
0
62
253
66
1
40
1
41
1
0
VERTEX
8
0
10
9553
20
1959
0
VERTEX
8
0
10
9553
20
1999
0
VERTEX
8
0
10
9533
20
1999
0
VERTEX
8
0
10
9533
20
1979
0
VERTEX
8
0
10
9533
20
1959
0
VERTEX
8
0
10
9553
20
1959
0
SEQEND
0
POLYLINE
8
0
62
253
66
1
40
1
41
1
0
VERTEX
8
0
10
9553
20
1959
0
VERTEX
8
0
10
9533
20
1959
0
VERTEX
8
0
10
9533
20
1939
0
VERTEX
8
0
10
9533
20
1919
0
VERTEX
8
0
10
9533
20
1899
0
VERTEX
8
0
10
9553
20
1899
0
VERTEX
8
0
10
9553
20
1959
0
SEQEND
0
POLYLINE
8
0
62
253
66
1
40
1
41
1
0
VERTEX
8
0
10
9553
20
1899
0
VERTEX
8
0
10
9533
20
1899
0
VERTEX
8
0
10
9533
20
1879
0
VERTEX
8
0
10
9533
20
1859
0
VERTEX
8
0
10
9553
20
1859
0
VERTEX
8
0
10
9553
20
1899
0
SEQEND
0
POLYLINE
8
0
62
254
66
1
40
1
41
1
0
VERTEX
8
0
10
9533
20
1899
0
VERTEX
8
0
10
9533
20
1919
0
VERTEX
8
0
10
9313
20
1919
0
VERTEX
8
0
10
9313
20
1899
0
VERTEX
8
0
10
9313
20
1879
0
VERTEX
8
0
10
9533
20
1879
0
VERTEX
8
0
10
9533
20
1899
0
SEQEND
0
POLYLINE
8
0
62
254
66
1
40
1
41
1
0
VERTEX
8
0
10
9533
20
1919
0
VERTEX
8
0
10
9533
20
1939
0
VERTEX
8
0
10
9313
20
1939
0
VERTEX
8
0
10
9313
20
1919
0
VERTEX
8
0
10
9533
20
1919
0
SEQEND
0
POLYLINE
8
0
62
253
66
1
40
1
41
1
0
VERTEX
8
0
10
9553
20
1859
0
VERTEX
8
0
10
9533
20
1859
0
VERTEX
8
0
10
9533
20
1819
0
VERTEX
8
0
10
9533
20
1799
0
VERTEX
8
0
10
9553
20
1799
0
VERTEX
8
0
10
9553
20
1859
0
SEQEND
0
POLYLINE
8
0
62
254
66
1
40
1
41
1
0
VERTEX
8
0
10
9533
20
1859
0
VERTEX
8
0
10
9533
20
1879
0
VERTEX
8
0
10
9313
20
1879
0
VERTEX
8
0
10
9313
20
1859
0
VERTEX
8
0
10
9533
20
1859
0
SEQEND
0
POLYLINE
8
0
62
254
66
1
40
1
41
1
0
VERTEX
8
0
10
9533
20
1799
0
VERTEX
8
0
10
9533
20
1819
0
VERTEX
8
0
10
9313
20
1819
0
VERTEX
8
0
10
9313
20
1799
0
VERTEX
8
0
10
9313
20
1779
0
VERTEX
8
0
10
9533
20
1779
0
VERTEX
8
0
10
9533
20
1799
0
SEQEND
0
POLYLINE
8
0
62
253
66
1
40
1
41
1
0
VERTEX
8
0
10
9553
20
1799
0
VERTEX
8
0
10
9533
20
1799
0
VERTEX
8
0
10
9533
20
1779
0
VERTEX
8
0
10
9533
20
1759
0
VERTEX
8
0
10
9553
20
1759
0
VERTEX
8
0
10
9553
20
1799
0
SEQEND
0
POLYLINE
8
0
62
9
66
1
40
1
41
1
0
VERTEX
8
0
10
9553
20
1719
0
VERTEX
8
0
10
9553
20
1759
0
VERTEX
8
0
10
9533
20
1759
0
VERTEX
8
0
10
9533
20
1739
0
VERTEX
8
0
10
9533
20
1719
0
VERTEX
8
0
10
9553
20
1719
0
SEQEND
0
POLYLINE
8
0
62
254
66
1
40
1
41
1
0
VERTEX
8
0
10
9533
20
1739
0
VERTEX
8
0
10
9533
20
1759
0
VERTEX
8
0
10
9533
20
1779
0
VERTEX
8
0
10
9313
20
1779
0
VERTEX
8
0
10
9313
20
1759
0
VERTEX
8
0
10
9313
20
1739
0
VERTEX
8
0
10
9533
20
1739
0
SEQEND
0
POLYLINE
8
0
62
254
66
1
40
1
41
1
0
VERTEX
8
0
10
9533
20
1719
0
VERTEX
8
0
10
9533
20
1739
0
VERTEX
8
0
10
9313
20
1739
0
VERTEX
8
0
10
9313
20
1719
0
VERTEX
8
0
10
9313
20
1559
0
VERTEX
8
0
10
9313
20
1519
0
VERTEX
8
0
10
9533
20
1519
0
VERTEX
8
0
10
9533
20
1559
0
VERTEX
8
0
10
9533
20
1719
0
SEQEND
0
POLYLINE
8
0
62
9
66
1
40
1
41
1
0
VERTEX
8
0
10
9553
20
1719
0
VERTEX
8
0
10
9533
20
1719
0
VERTEX
8
0
10
9533
20
1559
0
VERTEX
8
0
10
9553
20
1559
0
VERTEX
8
0
10
9553
20
1719
0
SEQEND
0
POLYLINE
8
0
62
254
66
1
40
1
41
1
0
VERTEX
8
0
10
9533
20
1819
0
VERTEX
8
0
10
9533
20
1859
0
VERTEX
8
0
10
9313
20
1859
0
VERTEX
8
0
10
9313
20
1819
0
VERTEX
8
0
10
9533
20
1819
0
SEQEND
0
POLYLINE
8
0
62
253
66
1
40
1
41
1
0
VERTEX
8
0
10
9553
20
1559
0
VERTEX
8
0
10
9533
20
1559
0
VERTEX
8
0
10
9533
20
1519
0
VERTEX
8
0
10
9533
20
1500
0
VERTEX
8
0
10
9553
20
1500
0
VERTEX
8
0
10
9553
20
1559
0
SEQEND
0
POLYLINE
8
0
62
254
66
1
40
1
41
1
0
VERTEX
8
0
10
9533
20
1500
0
VERTEX
8
0
10
9533
20
1519
0
VERTEX
8
0
10
9313
20
1519
0
VERTEX
8
0
10
9313
20
1500
0
VERTEX
8
0
10
9533
20
1500
0
SEQEND
0
POLYLINE
8
0
62
253
66
1
40
1
41
1
0
VERTEX
8
0
10
9553
20
1500
0
VERTEX
8
0
10
9533
20
1500
0
VERTEX
8
0
10
9533
20
1460
0
VERTEX
8
0
10
9533
20
1440
0
VERTEX
8
0
10
9553
20
1440
0
VERTEX
8
0
10
9553
20
1500
0
SEQEND
0
POLYLINE
8
0
62
253
66
1
40
1
41
1
0
VERTEX
8
0
10
9313
20
1899
0
VERTEX
8
0
10
9293
20
1899
0
VERTEX
8
0
10
9293
20
1859
0
VERTEX
8
0
10
9313
20
1859
0
VERTEX
8
0
10
9313
20
1879
0
VERTEX
8
0
10
9313
20
1899
0
SEQEND
0
POLYLINE
8
0
62
253
66
1
40
1
41
1
0
VERTEX
8
0
10
9313
20
1859
0
VERTEX
8
0
10
9293
20
1859
0
VERTEX
8
0
10
9293
20
1799
0
VERTEX
8
0
10
9313
20
1799
0
VERTEX
8
0
10
9313
20
1819
0
VERTEX
8
0
10
9313
20
1859
0
SEQEND
0
POLYLINE
8
0
62
253
66
1
40
1
41
1
0
VERTEX
8
0
10
9313
20
1779
0
VERTEX
8
0
10
9313
20
1799
0
VERTEX
8
0
10
9293
20
1799
0
VERTEX
8
0
10
9293
20
1759
0
VERTEX
8
0
10
9313
20
1759
0
VERTEX
8
0
10
9313
20
1779
0
SEQEND
0
POLYLINE
8
0
62
9
66
1
40
1
41
1
0
VERTEX
8
0
10
9293
20
1759
0
VERTEX
8
0
10
9293
20
1719
0
VERTEX
8
0
10
9313
20
1719
0
VERTEX
8
0
10
9313
20
1739
0
VERTEX
8
0
10
9313
20
1759
0
VERTEX
8
0
10
9293
20
1759
0
SEQEND
0
POLYLINE
8
0
62
9
66
1
40
1
41
1
0
VERTEX
8
0
10
9313
20
1719
0
VERTEX
8
0
10
9293
20
1719
0
VERTEX
8
0
10
9293
20
1559
0
VERTEX
8
0
10
9313
20
1559
0
VERTEX
8
0
10
9313
20
1719
0
SEQEND
0
POLYLINE
8
0
62
253
66
1
40
1
41
1
0
VERTEX
8
0
10
9313
20
1559
0
VERTEX
8
0
10
9293
20
1559
0
VERTEX
8
0
10
9293
20
1500
0
VERTEX
8
0
10
9313
20
1500
0
VERTEX
8
0
10
9313
20
1519
0
VERTEX
8
0
10
9313
20
1559
0
SEQEND
0
POLYLINE
8
0
62
253
66
1
40
1
41
1
0
VERTEX
8
0
10
9313
20
1500
0
VERTEX
8
0
10
9293
20
1500
0
VERTEX
8
0
10
9293
20
1440
0
VERTEX
8
0
10
9313
20
1440
0
VERTEX
8
0
10
9313
20
1460
0
VERTEX
8
0
10
9313
20
1500
0
SEQEND
0
POLYLINE
8
0
62
254
66
1
40
1
41
1
0
VERTEX
8
0
10
9313
20
1440
0
VERTEX
8
0
10
9313
20
1420
0
VERTEX
8
0
10
9533
20
1420
0
VERTEX
8
0
10
9533
20
1440
0
VERTEX
8
0
10
9313
20
1440
0
SEQEND
0
POLYLINE
8
0
62
252
66
1
40
1
41
1
0
VERTEX
8
0
10
9313
20
1420
0
VERTEX
8
0
10
9313
20
1440
0
VERTEX
8
0
10
9293
20
1440
0
VERTEX
8
0
10
9293
20
1380
0
VERTEX
8
0
10
9313
20
1380
0
VERTEX
8
0
10
9313
20
1400
0
VERTEX
8
0
10
9313
20
1420
0
SEQEND
0
POLYLINE
8
0
62
254
66
1
40
1
41
1
0
VERTEX
8
0
10
9313
20
1460
0
VERTEX
8
0
10
9313
20
1440
0
VERTEX
8
0
10
9533
20
1440
0
VERTEX
8
0
10
9533
20
1460
0
VERTEX
8
0
10
9313
20
1460
0
SEQEND
0
POLYLINE
8
0
62
252
66
1
40
1
41
1
0
VERTEX
8
0
10
9293
20
1380
0
VERTEX
8
0
10
9293
20
1340
0
VERTEX
8
0
10
9313
20
1340
0
VERTEX
8
0
10
9313
20
1360
0
VERTEX
8
0
10
9313
20
1380
0
VERTEX
8
0
10
9293
20
1380
0
SEQEND
0
POLYLINE
8
0
62
254
66
1
40
1
41
1
0
VERTEX
8
0
10
9313
20
1360
0
VERTEX
8
0
10
9313
20
1340
0
VERTEX
8
0
10
9533
20
1340
0
VERTEX
8
0
10
9533
20
1360
0
VERTEX
8
0
10
9313
20
1360
0
SEQEND
0
POLYLINE
8
0
62
254
66
1
40
1
41
1
0
VERTEX
8
0
10
9313
20
1380
0
VERTEX
8
0
10
9313
20
1360
0
VERTEX
8
0
10
9533
20
1360
0
VERTEX
8
0
10
9533
20
1380
0
VERTEX
8
0
10
9313
20
1380
0
SEQEND
0
POLYLINE
8
0
62
254
66
1
40
1
41
1
0
VERTEX
8
0
10
9313
20
1400
0
VERTEX
8
0
10
9313
20
1380
0
VERTEX
8
0
10
9533
20
1380
0
VERTEX
8
0
10
9533
20
1400
0
VERTEX
8
0
10
9313
20
1400
0
SEQEND
0
POLYLINE
8
0
62
9
66
1
40
1
41
1
0
VERTEX
8
0
10
9313
20
1340
0
VERTEX
8
0
10
9293
20
1340
0
VERTEX
8
0
10
9293
20
1300
0
VERTEX
8
0
10
9313
20
1300
0
VERTEX
8
0
10
9313
20
1320
0
VERTEX
8
0
10
9313
20
1340
0
SEQEND
0
POLYLINE
8
0
62
254
66
1
40
1
41
1
0
VERTEX
8
0
10
9313
20
1420
0
VERTEX
8
0
10
9313
20
1400
0
VERTEX
8
0
10
9533
20
1400
0
VERTEX
8
0
10
9533
20
1420
0
VERTEX
8
0
10
9313
20
1420
0
SEQEND
0
POLYLINE
8
0
62
254
66
1
40
1
41
1
0
VERTEX
8
0
10
9313
20
1300
0
VERTEX
8
0
10
9313
20
1280
0
VERTEX
8
0
10
9533
20
1280
0
VERTEX
8
0
10
9533
20
1300
0
VERTEX
8
0
10
9313
20
1300
0
SEQEND
0
POLYLINE
8
0
62
9
66
1
40
1
41
1
0
VERTEX
8
0
10
9313
20
1280
0
VERTEX
8
0
10
9313
20
1300
0
VERTEX
8
0
10
9293
20
1300
0
VERTEX
8
0
10
9293
20
1260
0
VERTEX
8
0
10
9313
20
1260
0
VERTEX
8
0
10
9313
20
1280
0
SEQEND
0
POLYLINE
8
0
62
254
66
1
40
1
41
1
0
VERTEX
8
0
10
9313
20
1320
0
VERTEX
8
0
10
9313
20
1300
0
VERTEX
8
0
10
9533
20
1300
0
VERTEX
8
0
10
9533
20
1320
0
VERTEX
8
0
10
9313
20
1320
0
SEQEND
0
POLYLINE
8
0
62
9
66
1
40
1
41
1
0
VERTEX
8
0
10
9293
20
1260
0
VERTEX
8
0
10
9293
20
1220
0
VERTEX
8
0
10
9313
20
1220
0
VERTEX
8
0
10
9313
20
1240
0
VERTEX
8
0
10
9313
20
1260
0
VERTEX
8
0
10
9293
20
1260
0
SEQEND
0
POLYLINE
8
0
62
254
66
1
40
1
41
1
0
VERTEX
8
0
10
9313
20
1240
0
VERTEX
8
0
10
9313
20
1220
0
VERTEX
8
0
10
9533
20
1220
0
VERTEX
8
0
10
9533
20
1240
0
VERTEX
8
0
10
9313
20
1240
0
SEQEND
0
POLYLINE
8
0
62
254
66
1
40
1
41
1
0
VERTEX
8
0
10
9313
20
1260
0
VERTEX
8
0
10
9313
20
1240
0
VERTEX
8
0
10
9533
20
1240
0
VERTEX
8
0
10
9533
20
1260
0
VERTEX
8
0
10
9313
20
1260
0
SEQEND
0
POLYLINE
8
0
62
9
66
1
40
1
41
1
0
VERTEX
8
0
10
9313
20
1220
0
VERTEX
8
0
10
9293
20
1220
0
VERTEX
8
0
10
9293
20
1160
0
VERTEX
8
0
10
9313
20
1160
0
VERTEX
8
0
10
9313
20
1180
0
VERTEX
8
0
10
9313
20
1200
0
VERTEX
8
0
10
9313
20
1220
0
SEQEND
0
POLYLINE
8
0
62
254
66
1
40
1
41
1
0
VERTEX
8
0
10
9313
20
1280
0
VERTEX
8
0
10
9313
20
1260
0
VERTEX
8
0
10
9533
20
1260
0
VERTEX
8
0
10
9533
20
1280
0
VERTEX
8
0
10
9313
20
1280
0
SEQEND
0
POLYLINE
8
0
62
254
66
1
40
1
41
1
0
VERTEX
8
0
10
9313
20
1340
0
VERTEX
8
0
10
9313
20
1320
0
VERTEX
8
0
10
9533
20
1320
0
VERTEX
8
0
10
9533
20
1340
0
VERTEX
8
0
10
9313
20
1340
0
SEQEND
0
POLYLINE
8
0
62
9
66
1
40
1
41
1
0
VERTEX
8
0
10
9313
20
1160
0
VERTEX
8
0
10
9293
20
1160
0
VERTEX
8
0
10
9293
20
1040
0
VERTEX
8
0
10
9313
20
1040
0
VERTEX
8
0
10
9313
20
1160
0
SEQEND
0
POLYLINE
8
0
62
255
66
1
40
1
41
1
0
VERTEX
8
0
10
9313
20
1200
0
VERTEX
8
0
10
9313
20
1180
0
VERTEX
8
0
10
9533
20
1180
0
VERTEX
8
0
10
9533
20
1200
0
VERTEX
8
0
10
9313
20
1200
0
SEQEND
0
POLYLINE
8
0
62
255
66
1
40
1
41
1
0
VERTEX
8
0
10
9313
20
1180
0
VERTEX
8
0
10
9313
20
1160
0
VERTEX
8
0
10
9533
20
1160
0
VERTEX
8
0
10
9533
20
1180
0
VERTEX
8
0
10
9313
20
1180
0
SEQEND
0
POLYLINE
8
0
62
251
66
1
40
1
41
1
0
VERTEX
8
0
10
9313
20
1040
0
VERTEX
8
0
10
9293
20
1040
0
VERTEX
8
0
10
9293
20
1000
0
VERTEX
8
0
10
9313
20
1000
0
VERTEX
8
0
10
9313
20
1040
0
SEQEND
0
POLYLINE
8
0
62
250
66
1
40
1
41
1
0
VERTEX
8
0
10
9313
20
1000
0
VERTEX
8
0
10
9293
20
1000
0
VERTEX
8
0
10
9293
20
960
0
VERTEX
8
0
10
9313
20
960
0
VERTEX
8
0
10
9313
20
1000
0
SEQEND
0
POLYLINE
8
0
62
255
66
1
40
1
41
1
0
VERTEX
8
0
10
9313
20
1040
0
VERTEX
8
0
10
9313
20
1000
0
VERTEX
8
0
10
9313
20
960
0
VERTEX
8
0
10
9313
20
940
0
VERTEX
8
0
10
9333
20
940
0
VERTEX
8
0
10
9333
20
900
0
VERTEX
8
0
10
9333
20
880
0
VERTEX
8
0
10
9353
20
880
0
VERTEX
8
0
10
9353
20
840
0
VERTEX
8
0
10
9373
20
840
0
VERTEX
8
0
10
9373
20
820
0
VERTEX
8
0
10
9393
20
820
0
VERTEX
8
0
10
9393
20
800
0
VERTEX
8
0
10
9433
20
800
0
VERTEX
8
0
10
9433
20
780
0
VERTEX
8
0
10
9453
20
780
0
VERTEX
8
0
10
9493
20
780
0
VERTEX
8
0
10
9493
20
760
0
VERTEX
8
0
10
9673
20
760
0
VERTEX
8
0
10
9673
20
780
0
VERTEX
8
0
10
9713
20
780
0
VERTEX
8
0
10
9713
20
980
0
VERTEX
8
0
10
9693
20
980
0
VERTEX
8
0
10
9613
20
980
0
VERTEX
8
0
10
9613
20
1000
0
VERTEX
8
0
10
9573
20
1000
0
VERTEX
8
0
10
9573
20
1020
0
VERTEX
8
0
10
9553
20
1020
0
VERTEX
8
0
10
9553
20
1060
0
VERTEX
8
0
10
9553
20
1080
0
VERTEX
8
0
10
9533
20
1080
0
VERTEX
8
0
10
9533
20
1160
0
VERTEX
8
0
10
9313
20
1160
0
VERTEX
8
0
10
9313
20
1040
0
SEQEND
0
POLYLINE
8
0
62
255
66
1
40
1
41
1
0
VERTEX
8
0
10
9313
20
1220
0
VERTEX
8
0
10
9313
20
1200
0
VERTEX
8
0
10
9533
20
1200
0
VERTEX
8
0
10
9533
20
1220
0
VERTEX
8
0
10
9313
20
1220
0
SEQEND
0
POLYLINE
8
0
62
252
66
1
40
1
41
1
0
VERTEX
8
0
10
9533
20
1440
0
VERTEX
8
0
10
9533
20
1420
0
VERTEX
8
0
10
9533
20
1400
0
VERTEX
8
0
10
9533
20
1380
0
VERTEX
8
0
10
9553
20
1380
0
VERTEX
8
0
10
9553
20
1440
0
VERTEX
8
0
10
9533
20
1440
0
SEQEND
0
POLYLINE
8
0
62
252
66
1
40
1
41
1
0
VERTEX
8
0
10
9553
20
1340
0
VERTEX
8
0
10
9553
20
1380
0
VERTEX
8
0
10
9533
20
1380
0
VERTEX
8
0
10
9533
20
1360
0
VERTEX
8
0
10
9533
20
1340
0
VERTEX
8
0
10
9553
20
1340
0
SEQEND
0
POLYLINE
8
0
62
9
66
1
40
1
41
1
0
VERTEX
8
0
10
9553
20
1340
0
VERTEX
8
0
10
9533
20
1340
0
VERTEX
8
0
10
9533
20
1320
0
VERTEX
8
0
10
9533
20
1300
0
VERTEX
8
0
10
9553
20
1300
0
VERTEX
8
0
10
9553
20
1340
0
SEQEND
0
POLYLINE
8
0
62
9
66
1
40
1
41
1
0
VERTEX
8
0
10
9553
20
1300
0
VERTEX
8
0
10
9533
20
1300
0
VERTEX
8
0
10
9533
20
1280
0
VERTEX
8
0
10
9533
20
1260
0
VERTEX
8
0
10
9553
20
1260
0
VERTEX
8
0
10
9553
20
1300
0
SEQEND
0
POLYLINE
8
0
62
9
66
1
40
1
41
1
0
VERTEX
8
0
10
9553
20
1220
0
VERTEX
8
0
10
9553
20
1260
0
VERTEX
8
0
10
9533
20
1260
0
VERTEX
8
0
10
9533
20
1240
0
VERTEX
8
0
10
9533
20
1220
0
VERTEX
8
0
10
9553
20
1220
0
SEQEND
0
POLYLINE
8
0
62
9
66
1
40
1
41
1
0
VERTEX
8
0
10
9553
20
1220
0
VERTEX
8
0
10
9533
20
1220
0
VERTEX
8
0
10
9533
20
1200
0
VERTEX
8
0
10
9533
20
1180
0
VERTEX
8
0
10
9533
20
1160
0
VERTEX
8
0
10
9553
20
1160
0
VERTEX
8
0
10
9553
20
1220
0
SEQEND
0
POLYLINE
8
0
62
253
66
1
40
1
41
1
0
VERTEX
8
0
10
9553
20
1160
0
VERTEX
8
0
10
9533
20
1160
0
VERTEX
8
0
10
9533
20
1080
0
VERTEX
8
0
10
9553
20
1080
0
VERTEX
8
0
10
9553
20
1160
0
SEQEND
0
POLYLINE
8
0
62
250
66
1
40
1
41
1
0
VERTEX
8
0
10
9613
20
1000
0
VERTEX
8
0
10
9613
20
980
0
VERTEX
8
0
10
9693
20
980
0
VERTEX
8
0
10
9693
20
1000
0
VERTEX
8
0
10
9613
20
1000
0
SEQEND
0
POLYLINE
8
0
62
47
66
1
40
1
41
1
0
VERTEX
8
0
10
9553
20
1060
0
VERTEX
8
0
10
9553
20
1020
0
VERTEX
8
0
10
9573
20
1020
0
VERTEX
8
0
10
9573
20
1060
0
VERTEX
8
0
10
9553
20
1060
0
SEQEND
0
POLYLINE
8
0
62
254
66
1
40
1
41
1
0
VERTEX
8
0
10
9313
20
1460
0
VERTEX
8
0
10
9533
20
1460
0
VERTEX
8
0
10
9533
20
1500
0
VERTEX
8
0
10
9313
20
1500
0
VERTEX
8
0
10
9313
20
1460
0
SEQEND
0
POLYLINE
8
0
62
252
66
1
40
1
41
1
0
VERTEX
8
0
10
9673
20
760
0
VERTEX
8
0
10
9713
20
760
0
VERTEX
8
0
10
9713
20
780
0
VERTEX
8
0
10
9673
20
780
0
VERTEX
8
0
10
9673
20
760
0
SEQEND
0
POLYLINE
8
0
62
251
66
1
40
1
41
1
0
VERTEX
8
0
10
9333
20
900
0
VERTEX
8
0
10
9333
20
940
0
VERTEX
8
0
10
9313
20
940
0
VERTEX
8
0
10
9313
20
900
0
VERTEX
8
0
10
9333
20
900
0
SEQEND
0
POLYLINE
8
0
62
250
66
1
40
1
41
1
0
VERTEX
8
0
10
9453
20
780
0
VERTEX
8
0
10
9453
20
760
0
VERTEX
8
0
10
9493
20
760
0
VERTEX
8
0
10
9493
20
780
0
VERTEX
8
0
10
9453
20
780
0
SEQEND
0
POLYLINE
8
0
62
253
66
1
40
1
41
1
0
VERTEX
8
0
10
9733
20
780
0
VERTEX
8
0
10
9733
20
980
0
VERTEX
8
0
10
9713
20
980
0
VERTEX
8
0
10
9713
20
780
0
VERTEX
8
0
10
9733
20
780
0
SEQEND
0
POLYLINE
8
0
62
252
66
1
40
1
41
1
0
VERTEX
8
0
10
7814
20
2559
0
VERTEX
8
0
10
7794
20
2559
0
VERTEX
8
0
10
7794
20
2199
0
VERTEX
8
0
10
7794
20
2179
0
VERTEX
8
0
10
7814
20
2179
0
VERTEX
8
0
10
7814
20
2559
0
SEQEND
0
POLYLINE
8
0
62
250
66
1
40
1
41
1
0
VERTEX
8
0
10
7554
20
2559
0
VERTEX
8
0
10
7534
20
2559
0
VERTEX
8
0
10
7534
20
2139
0
VERTEX
8
0
10
7554
20
2139
0
VERTEX
8
0
10
7554
20
2159
0
VERTEX
8
0
10
7554
20
2199
0
VERTEX
8
0
10
7554
20
2559
0
SEQEND
0
POLYLINE
8
0
62
255
66
1
40
1
41
1
0
VERTEX
8
0
10
7554
20
2199
0
VERTEX
8
0
10
7554
20
2159
0
VERTEX
8
0
10
7794
20
2159
0
VERTEX
8
0
10
7794
20
2179
0
VERTEX
8
0
10
7794
20
2199
0
VERTEX
8
0
10
7554
20
2199
0
SEQEND
0
POLYLINE
8
0
62
255
66
1
40
1
41
1
0
VERTEX
8
0
10
7554
20
2139
0
VERTEX
8
0
10
7554
20
2119
0
VERTEX
8
0
10
7794
20
2119
0
VERTEX
8
0
10
7794
20
2159
0
VERTEX
8
0
10
7554
20
2159
0
VERTEX
8
0
10
7554
20
2139
0
SEQEND
0
POLYLINE
8
0
62
250
66
1
40
1
41
1
0
VERTEX
8
0
10
7554
20
2119
0
VERTEX
8
0
10
7554
20
2139
0
VERTEX
8
0
10
7534
20
2139
0
VERTEX
8
0
10
7534
20
2059
0
VERTEX
8
0
10
7554
20
2059
0
VERTEX
8
0
10
7554
20
2079
0
VERTEX
8
0
10
7554
20
2119
0
SEQEND
0
POLYLINE
8
0
62
255
66
1
40
1
41
1
0
VERTEX
8
0
10
7554
20
1999
0
VERTEX
8
0
10
7554
20
1979
0
VERTEX
8
0
10
7794
20
1979
0
VERTEX
8
0
10
7794
20
1999
0
VERTEX
8
0
10
7554
20
1999
0
SEQEND
0
POLYLINE
8
0
62
250
66
1
40
1
41
1
0
VERTEX
8
0
10
7554
20
1979
0
VERTEX
8
0
10
7554
20
1999
0
VERTEX
8
0
10
7534
20
1999
0
VERTEX
8
0
10
7534
20
1919
0
VERTEX
8
0
10
7554
20
1919
0
VERTEX
8
0
10
7554
20
1939
0
VERTEX
8
0
10
7554
20
1979
0
SEQEND
0
POLYLINE
8
0
62
255
66
1
40
1
41
1
0
VERTEX
8
0
10
7554
20
2079
0
VERTEX
8
0
10
7554
20
2059
0
VERTEX
8
0
10
7554
20
2039
0
VERTEX
8
0
10
7794
20
2039
0
VERTEX
8
0
10
7794
20
2079
0
VERTEX
8
0
10
7554
20
2079
0
SEQEND
0
POLYLINE
8
0
62
250
66
1
40
1
41
1
0
VERTEX
8
0
10
7554
20
2039
0
VERTEX
8
0
10
7554
20
2059
0
VERTEX
8
0
10
7534
20
2059
0
VERTEX
8
0
10
7534
20
1999
0
VERTEX
8
0
10
7554
20
1999
0
VERTEX
8
0
10
7554
20
2039
0
SEQEND
0
POLYLINE
8
0
62
255
66
1
40
1
41
1
0
VERTEX
8
0
10
7554
20
2039
0
VERTEX
8
0
10
7554
20
1999
0
VERTEX
8
0
10
7794
20
1999
0
VERTEX
8
0
10
7794
20
2039
0
VERTEX
8
0
10
7554
20
2039
0
SEQEND
0
POLYLINE
8
0
62
255
66
1
40
1
41
1
0
VERTEX
8
0
10
7554
20
2119
0
VERTEX
8
0
10
7554
20
2079
0
VERTEX
8
0
10
7794
20
2079
0
VERTEX
8
0
10
7794
20
2119
0
VERTEX
8
0
10
7554
20
2119
0
SEQEND
0
POLYLINE
8
0
62
252
66
1
40
1
41
1
0
VERTEX
8
0
10
7814
20
2119
0
VERTEX
8
0
10
7814
20
2179
0
VERTEX
8
0
10
7794
20
2179
0
VERTEX
8
0
10
7794
20
2159
0
VERTEX
8
0
10
7794
20
2119
0
VERTEX
8
0
10
7814
20
2119
0
SEQEND
0
POLYLINE
8
0
62
252
66
1
40
1
41
1
0
VERTEX
8
0
10
7794
20
2079
0
VERTEX
8
0
10
7794
20
2039
0
VERTEX
8
0
10
7814
20
2039
0
VERTEX
8
0
10
7814
20
2079
0
VERTEX
8
0
10
7794
20
2079
0
SEQEND
0
POLYLINE
8
0
62
252
66
1
40
1
41
1
0
VERTEX
8
0
10
7794
20
1979
0
VERTEX
8
0
10
7794
20
1959
0
VERTEX
8
0
10
7814
20
1959
0
VERTEX
8
0
10
7814
20
1999
0
VERTEX
8
0
10
7794
20
1999
0
VERTEX
8
0
10
7794
20
1979
0
SEQEND
0
POLYLINE
8
0
62
254
66
1
40
1
41
1
0
VERTEX
8
0
10
7794
20
1959
0
VERTEX
8
0
10
7794
20
1979
0
VERTEX
8
0
10
7554
20
1979
0
VERTEX
8
0
10
7554
20
1939
0
VERTEX
8
0
10
7794
20
1939
0
VERTEX
8
0
10
7794
20
1959
0
SEQEND
0
POLYLINE
8
0
62
252
66
1
40
1
41
1
0
VERTEX
8
0
10
7794
20
2039
0
VERTEX
8
0
10
7794
20
1999
0
VERTEX
8
0
10
7814
20
1999
0
VERTEX
8
0
10
7814
20
2039
0
VERTEX
8
0
10
7794
20
2039
0
SEQEND
0
POLYLINE
8
0
62
252
66
1
40
1
41
1
0
VERTEX
8
0
10
7794
20
2119
0
VERTEX
8
0
10
7794
20
2079
0
VERTEX
8
0
10
7814
20
2079
0
VERTEX
8
0
10
7814
20
2119
0
VERTEX
8
0
10
7794
20
2119
0
SEQEND
0
POLYLINE
8
0
62
252
66
1
40
1
41
1
0
VERTEX
8
0
10
7814
20
1959
0
VERTEX
8
0
10
7794
20
1959
0
VERTEX
8
0
10
7794
20
1939
0
VERTEX
8
0
10
7794
20
1919
0
VERTEX
8
0
10
7814
20
1919
0
VERTEX
8
0
10
7814
20
1959
0
SEQEND
0
POLYLINE
8
0
62
47
66
1
40
1
41
1
0
VERTEX
8
0
10
7993
20
2079
0
VERTEX
8
0
10
7993
20
2039
0
VERTEX
8
0
10
8013
20
2039
0
VERTEX
8
0
10
8013
20
2079
0
VERTEX
8
0
10
7993
20
2079
0
SEQEND
0
POLYLINE
8
0
62
254
66
1
40
1
41
1
0
VERTEX
8
0
10
7973
20
1999
0
VERTEX
8
0
10
7973
20
1959
0
VERTEX
8
0
10
7953
20
1959
0
VERTEX
8
0
10
7953
20
1919
0
VERTEX
8
0
10
8193
20
1919
0
VERTEX
8
0
10
8213
20
1919
0
VERTEX
8
0
10
8213
20
1959
0
VERTEX
8
0
10
8233
20
1959
0
VERTEX
8
0
10
8233
20
1979
0
VERTEX
8
0
10
7993
20
1979
0
VERTEX
8
0
10
7993
20
1999
0
VERTEX
8
0
10
7973
20
1999
0
SEQEND
0
POLYLINE
8
0
62
255
66
1
40
1
41
1
0
VERTEX
8
0
10
7993
20
1999
0
VERTEX
8
0
10
7993
20
1979
0
VERTEX
8
0
10
8233
20
1979
0
VERTEX
8
0
10
8233
20
1999
0
VERTEX
8
0
10
7993
20
1999
0
SEQEND
0
POLYLINE
8
0
62
255
66
1
40
1
41
1
0
VERTEX
8
0
10
7993
20
2039
0
VERTEX
8
0
10
7993
20
1999
0
VERTEX
8
0
10
8233
20
1999
0
VERTEX
8
0
10
8253
20
1999
0
VERTEX
8
0
10
8253
20
2019
0
VERTEX
8
0
10
8253
20
2039
0
VERTEX
8
0
10
8013
20
2039
0
VERTEX
8
0
10
7993
20
2039
0
SEQEND
0
POLYLINE
8
0
62
255
66
1
40
1
41
1
0
VERTEX
8
0
10
8013
20
2079
0
VERTEX
8
0
10
8013
20
2039
0
VERTEX
8
0
10
8253
20
2039
0
VERTEX
8
0
10
8253
20
2059
0
VERTEX
8
0
10
8273
20
2059
0
VERTEX
8
0
10
8293
20
2059
0
VERTEX
8
0
10
8293
20
2079
0
VERTEX
8
0
10
8013
20
2079
0
SEQEND
0
POLYLINE
8
0
62
255
66
1
40
1
41
1
0
VERTEX
8
0
10
7554
20
2199
0
VERTEX
8
0
10
7794
20
2199
0
VERTEX
8
0
10
7794
20
2559
0
VERTEX
8
0
10
7554
20
2559
0
VERTEX
8
0
10
7554
20
2199
0
SEQEND
0
POLYLINE
8
0
62
254
66
1
40
1
41
1
0
VERTEX
8
0
10
7913
20
1859
0
VERTEX
8
0
10
7913
20
1839
0
VERTEX
8
0
10
7913
20
1819
0
VERTEX
8
0
10
8133
20
1819
0
VERTEX
8
0
10
8133
20
1839
0
VERTEX
8
0
10
8153
20
1839
0
VERTEX
8
0
10
8153
20
1859
0
VERTEX
8
0
10
7913
20
1859
0
SEQEND
0
POLYLINE
8
0
62
254
66
1
40
1
41
1
0
VERTEX
8
0
10
7933
20
1879
0
VERTEX
8
0
10
7913
20
1879
0
VERTEX
8
0
10
7913
20
1859
0
VERTEX
8
0
10
8153
20
1859
0
VERTEX
8
0
10
8153
20
1879
0
VERTEX
8
0
10
8173
20
1879
0
VERTEX
8
0
10
8193
20
1879
0
VERTEX
8
0
10
8193
20
1919
0
VERTEX
8
0
10
7953
20
1919
0
VERTEX
8
0
10
7933
20
1919
0
VERTEX
8
0
10
7933
20
1879
0
SEQEND
0
POLYLINE
8
0
62
254
66
1
40
1
41
1
0
VERTEX
8
0
10
7913
20
1819
0
VERTEX
8
0
10
7913
20
1839
0
VERTEX
8
0
10
7893
20
1839
0
VERTEX
8
0
10
7893
20
1779
0
VERTEX
8
0
10
7893
20
1759
0
VERTEX
8
0
10
8113
20
1759
0
VERTEX
8
0
10
8113
20
1799
0
VERTEX
8
0
10
8133
20
1799
0
VERTEX
8
0
10
8133
20
1819
0
VERTEX
8
0
10
7913
20
1819
0
SEQEND
0
POLYLINE
8
0
62
252
66
1
40
1
41
1
0
VERTEX
8
0
10
7814
20
1879
0
VERTEX
8
0
10
7814
20
1919
0
VERTEX
8
0
10
7794
20
1919
0
VERTEX
8
0
10
7794
20
1879
0
VERTEX
8
0
10
7814
20
1879
0
SEQEND
0
POLYLINE
8
0
62
252
66
1
40
1
41
1
0
VERTEX
8
0
10
7814
20
1839
0
VERTEX
8
0
10
7814
20
1879
0
VERTEX
8
0
10
7794
20
1879
0
VERTEX
8
0
10
7794
20
1859
0
VERTEX
8
0
10
7794
20
1839
0
VERTEX
8
0
10
7814
20
1839
0
SEQEND
0
POLYLINE
8
0
62
254
66
1
40
1
41
1
0
VERTEX
8
0
10
7794
20
1919
0
VERTEX
8
0
10
7794
20
1939
0
VERTEX
8
0
10
7554
20
1939
0
VERTEX
8
0
10
7554
20
1919
0
VERTEX
8
0
10
7794
20
1919
0
SEQEND
0
POLYLINE
8
0
62
254
66
1
40
1
41
1
0
VERTEX
8
0
10
7794
20
1839
0
VERTEX
8
0
10
7794
20
1859
0
VERTEX
8
0
10
7554
20
1859
0
VERTEX
8
0
10
7554
20
1819
0
VERTEX
8
0
10
7794
20
1819
0
VERTEX
8
0
10
7794
20
1839
0
SEQEND
0
POLYLINE
8
0
62
254
66
1
40
1
41
1
0
VERTEX
8
0
10
7794
20
1859
0
VERTEX
8
0
10
7794
20
1879
0
VERTEX
8
0
10
7554
20
1879
0
VERTEX
8
0
10
7554
20
1859
0
VERTEX
8
0
10
7794
20
1859
0
SEQEND
0
POLYLINE
8
0
62
254
66
1
40
1
41
1
0
VERTEX
8
0
10
7794
20
1879
0
VERTEX
8
0
10
7794
20
1919
0
VERTEX
8
0
10
7554
20
1919
0
VERTEX
8
0
10
7554
20
1879
0
VERTEX
8
0
10
7794
20
1879
0
SEQEND
0
POLYLINE
8
0
62
252
66
1
40
1
41
1
0
VERTEX
8
0
10
7794
20
1819
0
VERTEX
8
0
10
7794
20
1779
0
VERTEX
8
0
10
7814
20
1779
0
VERTEX
8
0
10
7814
20
1839
0
VERTEX
8
0
10
7794
20
1839
0
VERTEX
8
0
10
7794
20
1819
0
SEQEND
0
POLYLINE
8
0
62
254
66
1
40
1
41
1
0
VERTEX
8
0
10
7794
20
1779
0
VERTEX
8
0
10
7794
20
1819
0
VERTEX
8
0
10
7554
20
1819
0
VERTEX
8
0
10
7554
20
1779
0
VERTEX
8
0
10
7794
20
1779
0
SEQEND
0
POLYLINE
8
0
62
251
66
1
40
1
41
1
0
VERTEX
8
0
10
7794
20
1739
0
VERTEX
8
0
10
7794
20
1719
0
VERTEX
8
0
10
7814
20
1719
0
VERTEX
8
0
10
7814
20
1779
0
VERTEX
8
0
10
7794
20
1779
0
VERTEX
8
0
10
7794
20
1739
0
SEQEND
0
POLYLINE
8
0
62
254
66
1
40
1
41
1
0
VERTEX
8
0
10
7794
20
1719
0
VERTEX
8
0
10
7794
20
1739
0
VERTEX
8
0
10
7554
20
1739
0
VERTEX
8
0
10
7554
20
1519
0
VERTEX
8
0
10
8073
20
1519
0
VERTEX
8
0
10
8073
20
1559
0
VERTEX
8
0
10
8053
20
1559
0
VERTEX
8
0
10
8053
20
1599
0
VERTEX
8
0
10
8033
20
1599
0
VERTEX
8
0
10
8033
20
1639
0
VERTEX
8
0
10
8053
20
1639
0
VERTEX
8
0
10
8053
20
1659
0
VERTEX
8
0
10
8073
20
1659
0
VERTEX
8
0
10
8073
20
1699
0
VERTEX
8
0
10
8093
20
1699
0
VERTEX
8
0
10
8093
20
1739
0
VERTEX
8
0
10
8113
20
1739
0
VERTEX
8
0
10
8113
20
1759
0
VERTEX
8
0
10
7893
20
1759
0
VERTEX
8
0
10
7893
20
1779
0
VERTEX
8
0
10
7874
20
1779
0
VERTEX
8
0
10
7874
20
1739
0
VERTEX
8
0
10
7854
20
1739
0
VERTEX
8
0
10
7854
20
1699
0
VERTEX
8
0
10
7834
20
1699
0
VERTEX
8
0
10
7834
20
1659
0
VERTEX
8
0
10
7834
20
1639
0
VERTEX
8
0
10
7814
20
1639
0
VERTEX
8
0
10
7814
20
1619
0
VERTEX
8
0
10
7794
20
1619
0
VERTEX
8
0
10
7794
20
1719
0
SEQEND
0
POLYLINE
8
0
62
254
66
1
40
1
41
1
0
VERTEX
8
0
10
7794
20
1739
0
VERTEX
8
0
10
7794
20
1779
0
VERTEX
8
0
10
7554
20
1779
0
VERTEX
8
0
10
7554
20
1759
0
VERTEX
8
0
10
7554
20
1739
0
VERTEX
8
0
10
7794
20
1739
0
SEQEND
0
POLYLINE
8
0
62
252
66
1
40
1
41
1
0
VERTEX
8
0
10
7814
20
1719
0
VERTEX
8
0
10
7794
20
1719
0
VERTEX
8
0
10
7794
20
1619
0
VERTEX
8
0
10
7814
20
1619
0
VERTEX
8
0
10
7814
20
1639
0
VERTEX
8
0
10
7834
20
1639
0
VERTEX
8
0
10
7834
20
1659
0
VERTEX
8
0
10
7814
20
1659
0
VERTEX
8
0
10
7814
20
1719
0
SEQEND
0
POLYLINE
8
0
62
9
66
1
40
1
41
1
0
VERTEX
8
0
10
8033
20
1639
0
VERTEX
8
0
10
8033
20
1599
0
VERTEX
8
0
10
8053
20
1599
0
VERTEX
8
0
10
8053
20
1639
0
VERTEX
8
0
10
8033
20
1639
0
SEQEND
0
POLYLINE
8
0
62
250
66
1
40
1
41
1
0
VERTEX
8
0
10
8073
20
1599
0
VERTEX
8
0
10
8053
20
1599
0
VERTEX
8
0
10
8053
20
1559
0
VERTEX
8
0
10
8073
20
1559
0
VERTEX
8
0
10
8073
20
1599
0
SEQEND
0
POLYLINE
8
0
62
251
66
1
40
1
41
1
0
VERTEX
8
0
10
8093
20
1480
0
VERTEX
8
0
10
8093
20
1519
0
VERTEX
8
0
10
8073
20
1519
0
VERTEX
8
0
10
8073
20
1500
0
VERTEX
8
0
10
8073
20
1480
0
VERTEX
8
0
10
8093
20
1480
0
SEQEND
0
POLYLINE
8
0
62
254
66
1
40
1
41
1
0
VERTEX
8
0
10
8093
20
1480
0
VERTEX
8
0
10
8073
20
1480
0
VERTEX
8
0
10
8073
20
1500
0
VERTEX
8
0
10
7554
20
1500
0
VERTEX
8
0
10
7554
20
1480
0
VERTEX
8
0
10
7554
20
1460
0
VERTEX
8
0
10
8093
20
1460
0
VERTEX
8
0
10
8093
20
1480
0
SEQEND
0
POLYLINE
8
0
62
254
66
1
40
1
41
1
0
VERTEX
8
0
10
8073
20
1500
0
VERTEX
8
0
10
8073
20
1519
0
VERTEX
8
0
10
7554
20
1519
0
VERTEX
8
0
10
7554
20
1500
0
VERTEX
8
0
10
8073
20
1500
0
SEQEND
0
POLYLINE
8
0
62
250
66
1
40
1
41
1
0
VERTEX
8
0
10
7554
20
1859
0
VERTEX
8
0
10
7554
20
1879
0
VERTEX
8
0
10
7554
20
1919
0
VERTEX
8
0
10
7534
20
1919
0
VERTEX
8
0
10
7534
20
1859
0
VERTEX
8
0
10
7554
20
1859
0
SEQEND
0
POLYLINE
8
0
62
250
66
1
40
1
41
1
0
VERTEX
8
0
10
7554
20
1859
0
VERTEX
8
0
10
7534
20
1859
0
VERTEX
8
0
10
7534
20
1759
0
VERTEX
8
0
10
7554
20
1759
0
VERTEX
8
0
10
7554
20
1779
0
VERTEX
8
0
10
7554
20
1819
0
VERTEX
8
0
10
7554
20
1859
0
SEQEND
0
POLYLINE
8
0
62
250
66
1
40
1
41
1
0
VERTEX
8
0
10
7554
20
1739
0
VERTEX
8
0
10
7554
20
1759
0
VERTEX
8
0
10
7534
20
1759
0
VERTEX
8
0
10
7534
20
1480
0
VERTEX
8
0
10
7554
20
1480
0
VERTEX
8
0
10
7554
20
1500
0
VERTEX
8
0
10
7554
20
1519
0
VERTEX
8
0
10
7554
20
1739
0
SEQEND
0
POLYLINE
8
0
62
250
66
1
40
1
41
1
0
VERTEX
8
0
10
7554
20
1480
0
VERTEX
8
0
10
7534
20
1480
0
VERTEX
8
0
10
7534
20
1440
0
VERTEX
8
0
10
7554
20
1440
0
VERTEX
8
0
10
7554
20
1460
0
VERTEX
8
0
10
7554
20
1480
0
SEQEND
0
POLYLINE
8
0
62
254
66
1
40
1
41
1
0
VERTEX
8
0
10
7554
20
1440
0
VERTEX
8
0
10
7554
20
1420
0
VERTEX
8
0
10
8093
20
1420
0
VERTEX
8
0
10
8093
20
1440
0
VERTEX
8
0
10
7554
20
1440
0
SEQEND
0
POLYLINE
8
0
62
27
66
1
40
1
41
1
0
VERTEX
8
0
10
7554
20
1420
0
VERTEX
8
0
10
7554
20
1440
0
VERTEX
8
0
10
7534
20
1440
0
VERTEX
8
0
10
7534
20
1400
0
VERTEX
8
0
10
7554
20
1400
0
VERTEX
8
0
10
7554
20
1420
0
SEQEND
0
POLYLINE
8
0
62
254
66
1
40
1
41
1
0
VERTEX
8
0
10
7554
20
1460
0
VERTEX
8
0
10
7554
20
1440
0
VERTEX
8
0
10
8093
20
1440
0
VERTEX
8
0
10
8093
20
1460
0
VERTEX
8
0
10
7554
20
1460
0
SEQEND
0
POLYLINE
8
0
62
37
66
1
40
1
41
1
0
VERTEX
8
0
10
7534
20
1400
0
VERTEX
8
0
10
7534
20
1340
0
VERTEX
8
0
10
7554
20
1340
0
VERTEX
8
0
10
7554
20
1360
0
VERTEX
8
0
10
7554
20
1380
0
VERTEX
8
0
10
7554
20
1400
0
VERTEX
8
0
10
7534
20
1400
0
SEQEND
0
POLYLINE
8
0
62
254
66
1
40
1
41
1
0
VERTEX
8
0
10
7554
20
1360
0
VERTEX
8
0
10
7554
20
1340
0
VERTEX
8
0
10
7834
20
1340
0
VERTEX
8
0
10
7834
20
1360
0
VERTEX
8
0
10
7554
20
1360
0
SEQEND
0
POLYLINE
8
0
62
254
66
1
40
1
41
1
0
VERTEX
8
0
10
7554
20
1380
0
VERTEX
8
0
10
7554
20
1360
0
VERTEX
8
0
10
7834
20
1360
0
VERTEX
8
0
10
7854
20
1360
0
VERTEX
8
0
10
7854
20
1380
0
VERTEX
8
0
10
7554
20
1380
0
SEQEND
0
POLYLINE
8
0
62
254
66
1
40
1
41
1
0
VERTEX
8
0
10
7554
20
1400
0
VERTEX
8
0
10
7554
20
1380
0
VERTEX
8
0
10
7854
20
1380
0
VERTEX
8
0
10
7854
20
1360
0
VERTEX
8
0
10
7874
20
1360
0
VERTEX
8
0
10
7874
20
1380
0
VERTEX
8
0
10
7874
20
1400
0
VERTEX
8
0
10
7554
20
1400
0
SEQEND
0
POLYLINE
8
0
62
254
66
1
40
1
41
1
0
VERTEX
8
0
10
7554
20
1420
0
VERTEX
8
0
10
7554
20
1400
0
VERTEX
8
0
10
7874
20
1400
0
VERTEX
8
0
10
7874
20
1380
0
VERTEX
8
0
10
7893
20
1380
0
VERTEX
8
0
10
7893
20
1400
0
VERTEX
8
0
10
8113
20
1400
0
VERTEX
8
0
10
8113
20
1420
0
VERTEX
8
0
10
8093
20
1420
0
VERTEX
8
0
10
7554
20
1420
0
SEQEND
0
POLYLINE
8
0
62
37
66
1
40
1
41
1
0
VERTEX
8
0
10
7554
20
1340
0
VERTEX
8
0
10
7534
20
1340
0
VERTEX
8
0
10
7534
20
1300
0
VERTEX
8
0
10
7554
20
1300
0
VERTEX
8
0
10
7554
20
1320
0
VERTEX
8
0
10
7554
20
1340
0
SEQEND
0
POLYLINE
8
0
62
254
66
1
40
1
41
1
0
VERTEX
8
0
10
7554
20
1300
0
VERTEX
8
0
10
7554
20
1280
0
VERTEX
8
0
10
7794
20
1280
0
VERTEX
8
0
10
7794
20
1260
0
VERTEX
8
0
10
7814
20
1260
0
VERTEX
8
0
10
7814
20
1280
0
VERTEX
8
0
10
7814
20
1300
0
VERTEX
8
0
10
7554
20
1300
0
SEQEND
0
POLYLINE
8
0
62
37
66
1
40
1
41
1
0
VERTEX
8
0
10
7554
20
1280
0
VERTEX
8
0
10
7554
20
1300
0
VERTEX
8
0
10
7534
20
1300
0
VERTEX
8
0
10
7534
20
1240
0
VERTEX
8
0
10
7554
20
1240
0
VERTEX
8
0
10
7554
20
1260
0
VERTEX
8
0
10
7554
20
1280
0
SEQEND
0
POLYLINE
8
0
62
254
66
1
40
1
41
1
0
VERTEX
8
0
10
7554
20
1320
0
VERTEX
8
0
10
7554
20
1300
0
VERTEX
8
0
10
7814
20
1300
0
VERTEX
8
0
10
7814
20
1320
0
VERTEX
8
0
10
7554
20
1320
0
SEQEND
0
POLYLINE
8
0
62
254
66
1
40
1
41
1
0
VERTEX
8
0
10
7554
20
1240
0
VERTEX
8
0
10
7554
20
1220
0
VERTEX
8
0
10
7794
20
1220
0
VERTEX
8
0
10
7794
20
1240
0
VERTEX
8
0
10
7554
20
1240
0
SEQEND
0
POLYLINE
8
0
62
37
66
1
40
1
41
1
0
VERTEX
8
0
10
7554
20
1220
0
VERTEX
8
0
10
7554
20
1240
0
VERTEX
8
0
10
7534
20
1240
0
VERTEX
8
0
10
7534
20
1160
0
VERTEX
8
0
10
7554
20
1160
0
VERTEX
8
0
10
7554
20
1180
0
VERTEX
8
0
10
7554
20
1200
0
VERTEX
8
0
10
7554
20
1220
0
SEQEND
0
POLYLINE
8
0
62
254
66
1
40
1
41
1
0
VERTEX
8
0
10
7554
20
1260
0
VERTEX
8
0
10
7554
20
1240
0
VERTEX
8
0
10
7794
20
1240
0
VERTEX
8
0
10
7794
20
1260
0
VERTEX
8
0
10
7554
20
1260
0
SEQEND
0
POLYLINE
8
0
62
254
66
1
40
1
41
1
0
VERTEX
8
0
10
7554
20
1280
0
VERTEX
8
0
10
7554
20
1260
0
VERTEX
8
0
10
7794
20
1260
0
VERTEX
8
0
10
7794
20
1280
0
VERTEX
8
0
10
7554
20
1280
0
SEQEND
0
POLYLINE
8
0
62
254
66
1
40
1
41
1
0
VERTEX
8
0
10
7554
20
1340
0
VERTEX
8
0
10
7554
20
1320
0
VERTEX
8
0
10
7814
20
1320
0
VERTEX
8
0
10
7834
20
1320
0
VERTEX
8
0
10
7834
20
1340
0
VERTEX
8
0
10
7554
20
1340
0
SEQEND
0
POLYLINE
8
0
62
255
66
1
40
1
41
1
0
VERTEX
8
0
10
7554
20
1180
0
VERTEX
8
0
10
7554
20
1160
0
VERTEX
8
0
10
7794
20
1160
0
VERTEX
8
0
10
7794
20
1180
0
VERTEX
8
0
10
7554
20
1180
0
SEQEND
0
POLYLINE
8
0
62
255
66
1
40
1
41
1
0
VERTEX
8
0
10
7554
20
1200
0
VERTEX
8
0
10
7554
20
1180
0
VERTEX
8
0
10
7794
20
1180
0
VERTEX
8
0
10
7794
20
1200
0
VERTEX
8
0
10
7554
20
1200
0
SEQEND
0
POLYLINE
8
0
62
255
66
1
40
1
41
1
0
VERTEX
8
0
10
7554
20
1160
0
VERTEX
8
0
10
7554
20
1120
0
VERTEX
8
0
10
7794
20
1120
0
VERTEX
8
0
10
7794
20
1140
0
VERTEX
8
0
10
7794
20
1160
0
VERTEX
8
0
10
7554
20
1160
0
SEQEND
0
POLYLINE
8
0
62
37
66
1
40
1
41
1
0
VERTEX
8
0
10
7554
20
1120
0
VERTEX
8
0
10
7554
20
1160
0
VERTEX
8
0
10
7534
20
1160
0
VERTEX
8
0
10
7534
20
740
0
VERTEX
8
0
10
7554
20
740
0
VERTEX
8
0
10
7554
20
1120
0
SEQEND
0
POLYLINE
8
0
62
255
66
1
40
1
41
1
0
VERTEX
8
0
10
7554
20
1220
0
VERTEX
8
0
10
7554
20
1200
0
VERTEX
8
0
10
7794
20
1200
0
VERTEX
8
0
10
7794
20
1220
0
VERTEX
8
0
10
7554
20
1220
0
SEQEND
0
POLYLINE
8
0
62
250
66
1
40
1
41
1
0
VERTEX
8
0
10
8093
20
1440
0
VERTEX
8
0
10
8093
20
1420
0
VERTEX
8
0
10
8113
20
1420
0
VERTEX
8
0
10
8113
20
1460
0
VERTEX
8
0
10
8093
20
1460
0
VERTEX
8
0
10
8093
20
1440
0
SEQEND
0
POLYLINE
8
0
62
254
66
1
40
1
41
1
0
VERTEX
8
0
10
7913
20
1360
0
VERTEX
8
0
10
7913
20
1340
0
VERTEX
8
0
10
8113
20
1340
0
VERTEX
8
0
10
8113
20
1360
0
VERTEX
8
0
10
7913
20
1360
0
SEQEND
0
POLYLINE
8
0
62
254
66
1
40
1
41
1
0
VERTEX
8
0
10
7913
20
1340
0
VERTEX
8
0
10
7913
20
1360
0
VERTEX
8
0
10
8113
20
1360
0
VERTEX
8
0
10
8113
20
1380
0
VERTEX
8
0
10
7893
20
1380
0
VERTEX
8
0
10
7893
20
1340
0
VERTEX
8
0
10
7913
20
1340
0
SEQEND
0
POLYLINE
8
0
62
254
66
1
40
1
41
1
0
VERTEX
8
0
10
7913
20
1300
0
VERTEX
8
0
10
7913
20
1280
0
VERTEX
8
0
10
8133
20
1280
0
VERTEX
8
0
10
8133
20
1300
0
VERTEX
8
0
10
7913
20
1300
0
SEQEND
0
POLYLINE
8
0
62
254
66
1
40
1
41
1
0
VERTEX
8
0
10
7913
20
1320
0
VERTEX
8
0
10
7913
20
1300
0
VERTEX
8
0
10
8133
20
1300
0
VERTEX
8
0
10
8133
20
1320
0
VERTEX
8
0
10
7913
20
1320
0
SEQEND
0
POLYLINE
8
0
62
251
66
1
40
1
41
1
0
VERTEX
8
0
10
7913
20
1300
0
VERTEX
8
0
10
7913
20
1320
0
VERTEX
8
0
10
7913
20
1340
0
VERTEX
8
0
10
7893
20
1340
0
VERTEX
8
0
10
7893
20
1300
0
VERTEX
8
0
10
7913
20
1300
0
SEQEND
0
POLYLINE
8
0
62
251
66
1
40
1
41
1
0
VERTEX
8
0
10
7913
20
1260
0
VERTEX
8
0
10
7913
20
1220
0
VERTEX
8
0
10
7933
20
1220
0
VERTEX
8
0
10
7933
20
1240
0
VERTEX
8
0
10
7933
20
1260
0
VERTEX
8
0
10
7913
20
1260
0
SEQEND
0
POLYLINE
8
0
62
254
66
1
40
1
41
1
0
VERTEX
8
0
10
7933
20
1240
0
VERTEX
8
0
10
7933
20
1220
0
VERTEX
8
0
10
8153
20
1220
0
VERTEX
8
0
10
8153
20
1240
0
VERTEX
8
0
10
7933
20
1240
0
SEQEND
0
POLYLINE
8
0
62
254
66
1
40
1
41
1
0
VERTEX
8
0
10
7933
20
1260
0
VERTEX
8
0
10
7933
20
1240
0
VERTEX
8
0
10
8153
20
1240
0
VERTEX
8
0
10
8153
20
1260
0
VERTEX
8
0
10
7933
20
1260
0
SEQEND
0
POLYLINE
8
0
62
254
66
1
40
1
41
1
0
VERTEX
8
0
10
7913
20
1260
0
VERTEX
8
0
10
7933
20
1260
0
VERTEX
8
0
10
8153
20
1260
0
VERTEX
8
0
10
8153
20
1280
0
VERTEX
8
0
10
8133
20
1280
0
VERTEX
8
0
10
7913
20
1280
0
VERTEX
8
0
10
7913
20
1260
0
SEQEND
0
POLYLINE
8
0
62
254
66
1
40
1
41
1
0
VERTEX
8
0
10
7913
20
1340
0
VERTEX
8
0
10
7913
20
1320
0
VERTEX
8
0
10
8133
20
1320
0
VERTEX
8
0
10
8133
20
1340
0
VERTEX
8
0
10
8113
20
1340
0
VERTEX
8
0
10
7913
20
1340
0
SEQEND
0
POLYLINE
8
0
62
252
66
1
40
1
41
1
0
VERTEX
8
0
10
7834
20
1360
0
VERTEX
8
0
10
7834
20
1340
0
VERTEX
8
0
10
7834
20
1320
0
VERTEX
8
0
10
7854
20
1320
0
VERTEX
8
0
10
7854
20
1360
0
VERTEX
8
0
10
7834
20
1360
0
SEQEND
0
POLYLINE
8
0
62
254
66
1
40
1
41
1
0
VERTEX
8
0
10
7893
20
1400
0
VERTEX
8
0
10
7893
20
1380
0
VERTEX
8
0
10
8113
20
1380
0
VERTEX
8
0
10
8113
20
1400
0
VERTEX
8
0
10
7893
20
1400
0
SEQEND
0
POLYLINE
8
0
62
251
66
1
40
1
41
1
0
VERTEX
8
0
10
7794
20
1240
0
VERTEX
8
0
10
7794
20
1220
0
VERTEX
8
0
10
7814
20
1220
0
VERTEX
8
0
10
7814
20
1260
0
VERTEX
8
0
10
7794
20
1260
0
VERTEX
8
0
10
7794
20
1240
0
SEQEND
0
POLYLINE
8
0
62
252
66
1
40
1
41
1
0
VERTEX
8
0
10
7834
20
1280
0
VERTEX
8
0
10
7834
20
1320
0
VERTEX
8
0
10
7814
20
1320
0
VERTEX
8
0
10
7814
20
1300
0
VERTEX
8
0
10
7814
20
1280
0
VERTEX
8
0
10
7834
20
1280
0
SEQEND
0
POLYLINE
8
0
62
251
66
1
40
1
41
1
0
VERTEX
8
0
10
7814
20
1220
0
VERTEX
8
0
10
7794
20
1220
0
VERTEX
8
0
10
7794
20
1200
0
VERTEX
8
0
10
7794
20
1180
0
VERTEX
8
0
10
7814
20
1180
0
VERTEX
8
0
10
7814
20
1220
0
SEQEND
0
POLYLINE
8
0
62
251
66
1
40
1
41
1
0
VERTEX
8
0
10
7814
20
1140
0
VERTEX
8
0
10
7814
20
1180
0
VERTEX
8
0
10
7794
20
1180
0
VERTEX
8
0
10
7794
20
1160
0
VERTEX
8
0
10
7794
20
1140
0
VERTEX
8
0
10
7814
20
1140
0
SEQEND
0
POLYLINE
8
0
62
251
66
1
40
1
41
1
0
VERTEX
8
0
10
7794
20
1140
0
VERTEX
8
0
10
7794
20
1120
0
VERTEX
8
0
10
7794
20
740
0
VERTEX
8
0
10
7814
20
740
0
VERTEX
8
0
10
7814
20
1140
0
VERTEX
8
0
10
7794
20
1140
0
SEQEND
0
POLYLINE
8
0
62
255
66
1
40
1
41
1
0
VERTEX
8
0
10
7953
20
1180
0
VERTEX
8
0
10
7953
20
1160
0
VERTEX
8
0
10
8173
20
1160
0
VERTEX
8
0
10
8173
20
1180
0
VERTEX
8
0
10
7953
20
1180
0
SEQEND
0
POLYLINE
8
0
62
251
66
1
40
1
41
1
0
VERTEX
8
0
10
7953
20
1160
0
VERTEX
8
0
10
7953
20
1180
0
VERTEX
8
0
10
7933
20
1180
0
VERTEX
8
0
10
7933
20
1140
0
VERTEX
8
0
10
7953
20
1140
0
VERTEX
8
0
10
7953
20
1160
0
SEQEND
0
POLYLINE
8
0
62
255
66
1
40
1
41
1
0
VERTEX
8
0
10
7953
20
1200
0
VERTEX
8
0
10
7953
20
1180
0
VERTEX
8
0
10
8173
20
1180
0
VERTEX
8
0
10
8173
20
1200
0
VERTEX
8
0
10
7953
20
1200
0
SEQEND
0
POLYLINE
8
0
62
254
66
1
40
1
41
1
0
VERTEX
8
0
10
7953
20
1180
0
VERTEX
8
0
10
7953
20
1200
0
VERTEX
8
0
10
8173
20
1200
0
VERTEX
8
0
10
8173
20
1220
0
VERTEX
8
0
10
8153
20
1220
0
VERTEX
8
0
10
7933
20
1220
0
VERTEX
8
0
10
7933
20
1180
0
VERTEX
8
0
10
7953
20
1180
0
SEQEND
0
POLYLINE
8
0
62
255
66
1
40
1
41
1
0
VERTEX
8
0
10
7953
20
1140
0
VERTEX
8
0
10
7953
20
1100
0
VERTEX
8
0
10
7973
20
1100
0
VERTEX
8
0
10
7973
20
1120
0
VERTEX
8
0
10
8193
20
1120
0
VERTEX
8
0
10
8193
20
1140
0
VERTEX
8
0
10
8173
20
1140
0
VERTEX
8
0
10
8173
20
1160
0
VERTEX
8
0
10
7953
20
1160
0
VERTEX
8
0
10
7953
20
1140
0
SEQEND
0
POLYLINE
8
0
62
255
66
1
40
1
41
1
0
VERTEX
8
0
10
7973
20
1120
0
VERTEX
8
0
10
7973
20
1100
0
VERTEX
8
0
10
7973
20
1060
0
VERTEX
8
0
10
7973
20
1020
0
VERTEX
8
0
10
7993
20
1020
0
VERTEX
8
0
10
7993
20
980
0
VERTEX
8
0
10
7993
20
940
0
VERTEX
8
0
10
8013
20
940
0
VERTEX
8
0
10
8013
20
900
0
VERTEX
8
0
10
8013
20
860
0
VERTEX
8
0
10
8033
20
860
0
VERTEX
8
0
10
8033
20
820
0
VERTEX
8
0
10
8033
20
780
0
VERTEX
8
0
10
8053
20
780
0
VERTEX
8
0
10
8053
20
740
0
VERTEX
8
0
10
8293
20
740
0
VERTEX
8
0
10
8293
20
780
0
VERTEX
8
0
10
8293
20
800
0
VERTEX
8
0
10
8273
20
800
0
VERTEX
8
0
10
8273
20
840
0
VERTEX
8
0
10
8273
20
860
0
VERTEX
8
0
10
8253
20
860
0
VERTEX
8
0
10
8253
20
900
0
VERTEX
8
0
10
8253
20
940
0
VERTEX
8
0
10
8233
20
940
0
VERTEX
8
0
10
8233
20
980
0
VERTEX
8
0
10
8233
20
1000
0
VERTEX
8
0
10
8213
20
1000
0
VERTEX
8
0
10
8213
20
1040
0
VERTEX
8
0
10
8213
20
1060
0
VERTEX
8
0
10
8193
20
1060
0
VERTEX
8
0
10
8193
20
1100
0
VERTEX
8
0
10
8193
20
1120
0
VERTEX
8
0
10
7973
20
1120
0
SEQEND
0
POLYLINE
8
0
62
251
66
1
40
1
41
1
0
VERTEX
8
0
10
7973
20
1100
0
VERTEX
8
0
10
7953
20
1100
0
VERTEX
8
0
10
7953
20
1060
0
VERTEX
8
0
10
7973
20
1060
0
VERTEX
8
0
10
7973
20
1100
0
SEQEND
0
POLYLINE
8
0
62
251
66
1
40
1
41
1
0
VERTEX
8
0
10
7993
20
980
0
VERTEX
8
0
10
7993
20
1020
0
VERTEX
8
0
10
7973
20
1020
0
VERTEX
8
0
10
7973
20
980
0
VERTEX
8
0
10
7993
20
980
0
SEQEND
0
POLYLINE
8
0
62
255
66
1
40
1
41
1
0
VERTEX
8
0
10
7794
20
1120
0
VERTEX
8
0
10
7554
20
1120
0
VERTEX
8
0
10
7554
20
740
0
VERTEX
8
0
10
7794
20
740
0
VERTEX
8
0
10
7794
20
1120
0
SEQEND
0
POLYLINE
8
0
62
9
66
1
40
1
41
1
0
VERTEX
8
0
10
8253
20
2059
0
VERTEX
8
0
10
8253
20
2039
0
VERTEX
8
0
10
8253
20
2019
0
VERTEX
8
0
10
8273
20
2019
0
VERTEX
8
0
10
8273
20
2059
0
VERTEX
8
0
10
8253
20
2059
0
SEQEND
0
POLYLINE
8
0
62
9
66
1
40
1
41
1
0
VERTEX
8
0
10
8173
20
1839
0
VERTEX
8
0
10
8173
20
1879
0
VERTEX
8
0
10
8153
20
1879
0
VERTEX
8
0
10
8153
20
1859
0
VERTEX
8
0
10
8153
20
1839
0
VERTEX
8
0
10
8173
20
1839
0
SEQEND
0
POLYLINE
8
0
62
9
66
1
40
1
41
1
0
VERTEX
8
0
10
8153
20
1839
0
VERTEX
8
0
10
8133
20
1839
0
VERTEX
8
0
10
8133
20
1819
0
VERTEX
8
0
10
8133
20
1799
0
VERTEX
8
0
10
8153
20
1799
0
VERTEX
8
0
10
8153
20
1839
0
SEQEND
0
POLYLINE
8
0
62
252
66
1
40
1
41
1
0
VERTEX
8
0
10
8133
20
1799
0
VERTEX
8
0
10
8113
20
1799
0
VERTEX
8
0
10
8113
20
1759
0
VERTEX
8
0
10
8133
20
1759
0
VERTEX
8
0
10
8133
20
1799
0
SEQEND
0
POLYLINE
8
0
62
8
66
1
40
1
41
1
0
VERTEX
8
0
10
8133
20
1340
0
VERTEX
8
0
10
8133
20
1380
0
VERTEX
8
0
10
8113
20
1380
0
VERTEX
8
0
10
8113
20
1360
0
VERTEX
8
0
10
8113
20
1340
0
VERTEX
8
0
10
8133
20
1340
0
SEQEND
0
POLYLINE
8
0
62
250
66
1
40
1
41
1
0
VERTEX
8
0
10
8153
20
1280
0
VERTEX
8
0
10
8153
20
1320
0
VERTEX
8
0
10
8133
20
1320
0
VERTEX
8
0
10
8133
20
1300
0
VERTEX
8
0
10
8133
20
1280
0
VERTEX
8
0
10
8153
20
1280
0
SEQEND
0
POLYLINE
8
0
62
27
66
1
40
1
41
1
0
VERTEX
8
0
10
8173
20
1220
0
VERTEX
8
0
10
8173
20
1260
0
VERTEX
8
0
10
8153
20
1260
0
VERTEX
8
0
10
8153
20
1240
0
VERTEX
8
0
10
8153
20
1220
0
VERTEX
8
0
10
8173
20
1220
0
SEQEND
0
POLYLINE
8
0
62
8
66
1
40
1
41
1
0
VERTEX
8
0
10
8173
20
1180
0
VERTEX
8
0
10
8173
20
1160
0
VERTEX
8
0
10
8173
20
1140
0
VERTEX
8
0
10
8193
20
1140
0
VERTEX
8
0
10
8193
20
1180
0
VERTEX
8
0
10
8173
20
1180
0
SEQEND
0
POLYLINE
8
0
62
8
66
1
40
1
41
1
0
VERTEX
8
0
10
8233
20
1040
0
VERTEX
8
0
10
8213
20
1040
0
VERTEX
8
0
10
8213
20
1000
0
VERTEX
8
0
10
8233
20
1000
0
VERTEX
8
0
10
8233
20
1040
0
SEQEND
0
POLYLINE
8
0
62
250
66
1
40
1
41
1
0
VERTEX
8
0
10
8253
20
980
0
VERTEX
8
0
10
8233
20
980
0
VERTEX
8
0
10
8233
20
940
0
VERTEX
8
0
10
8253
20
940
0
VERTEX
8
0
10
8253
20
980
0
SEQEND
0
POLYLINE
8
0
62
252
66
1
40
1
41
1
0
VERTEX
8
0
10
8213
20
1060
0
VERTEX
8
0
10
8213
20
1100
0
VERTEX
8
0
10
8193
20
1100
0
VERTEX
8
0
10
8193
20
1060
0
VERTEX
8
0
10
8213
20
1060
0
SEQEND
0
POLYLINE
8
0
62
37
66
1
40
1
41
1
0
VERTEX
8
0
10
8313
20
740
0
VERTEX
8
0
10
8313
20
780
0
VERTEX
8
0
10
8293
20
780
0
VERTEX
8
0
10
8293
20
740
0
VERTEX
8
0
10
8313
20
740
0
SEQEND
0
POLYLINE
8
0
62
251
66
1
40
1
41
1
0
VERTEX
8
0
10
8273
20
860
0
VERTEX
8
0
10
8273
20
900
0
VERTEX
8
0
10
8253
20
900
0
VERTEX
8
0
10
8253
20
860
0
VERTEX
8
0
10
8273
20
860
0
SEQEND
0
POLYLINE
8
0
62
250
66
1
40
1
41
1
0
VERTEX
8
0
10
8273
20
800
0
VERTEX
8
0
10
8293
20
800
0
VERTEX
8
0
10
8293
20
840
0
VERTEX
8
0
10
8273
20
840
0
VERTEX
8
0
10
8273
20
800
0
SEQEND
0
POLYLINE
8
0
62
8
66
1
40
1
41
1
0
VERTEX
8
0
10
8013
20
900
0
VERTEX
8
0
10
8013
20
940
0
VERTEX
8
0
10
7993
20
940
0
VERTEX
8
0
10
7993
20
900
0
VERTEX
8
0
10
8013
20
900
0
SEQEND
0
POLYLINE
8
0
62
8
66
1
40
1
41
1
0
VERTEX
8
0
10
8033
20
860
0
VERTEX
8
0
10
8013
20
860
0
VERTEX
8
0
10
8013
20
820
0
VERTEX
8
0
10
8033
20
820
0
VERTEX
8
0
10
8033
20
860
0
SEQEND
0
POLYLINE
8
0
62
8
66
1
40
1
41
1
0
VERTEX
8
0
10
8033
20
740
0
VERTEX
8
0
10
8053
20
740
0
VERTEX
8
0
10
8053
20
780
0
VERTEX
8
0
10
8033
20
780
0
VERTEX
8
0
10
8033
20
740
0
SEQEND
0
POLYLINE
8
0
62
255
66
1
40
1
41
1
0
VERTEX
8
0
10
7054
20
2559
0
VERTEX
8
0
10
7054
20
2539
0
VERTEX
8
0
10
7034
20
2539
0
VERTEX
8
0
10
7034
20
2499
0
VERTEX
8
0
10
7014
20
2499
0
VERTEX
8
0
10
7014
20
2479
0
VERTEX
8
0
10
6994
20
2479
0
VERTEX
8
0
10
6994
20
2459
0
VERTEX
8
0
10
6974
20
2459
0
VERTEX
8
0
10
6974
20
2439
0
VERTEX
8
0
10
6934
20
2439
0
VERTEX
8
0
10
6934
20
2419
0
VERTEX
8
0
10
6914
20
2419
0
VERTEX
8
0
10
6914
20
2399
0
VERTEX
8
0
10
6874
20
2399
0
VERTEX
8
0
10
6874
20
2379
0
VERTEX
8
0
10
6834
20
2379
0
VERTEX
8
0
10
6834
20
2359
0
VERTEX
8
0
10
6794
20
2359
0
VERTEX
8
0
10
6794
20
2339
0
VERTEX
8
0
10
6774
20
2339
0
VERTEX
8
0
10
6774
20
2219
0
VERTEX
8
0
10
6774
20
2199
0
VERTEX
8
0
10
7254
20
2199
0
VERTEX
8
0
10
7254
20
2559
0
VERTEX
8
0
10
7054
20
2559
0
SEQEND
0
POLYLINE
8
0
62
254
66
1
40
1
41
1
0
VERTEX
8
0
10
6774
20
2339
0
VERTEX
8
0
10
6754
20
2339
0
VERTEX
8
0
10
6754
20
2219
0
VERTEX
8
0
10
6774
20
2219
0
VERTEX
8
0
10
6774
20
2339
0
SEQEND
0
POLYLINE
8
0
62
254
66
1
40
1
41
1
0
VERTEX
8
0
10
6774
20
2219
0
VERTEX
8
0
10
6754
20
2219
0
VERTEX
8
0
10
6754
20
2139
0
VERTEX
8
0
10
6774
20
2139
0
VERTEX
8
0
10
6774
20
2159
0
VERTEX
8
0
10
6774
20
2199
0
VERTEX
8
0
10
6774
20
2219
0
SEQEND
0
POLYLINE
8
0
62
255
66
1
40
1
41
1
0
VERTEX
8
0
10
6774
20
2199
0
VERTEX
8
0
10
6774
20
2159
0
VERTEX
8
0
10
7254
20
2159
0
VERTEX
8
0
10
7254
20
2199
0
VERTEX
8
0
10
6774
20
2199
0
SEQEND
0
POLYLINE
8
0
62
255
66
1
40
1
41
1
0
VERTEX
8
0
10
6774
20
2159
0
VERTEX
8
0
10
6774
20
2139
0
VERTEX
8
0
10
6974
20
2139
0
VERTEX
8
0
10
6974
20
2119
0
VERTEX
8
0
10
7254
20
2119
0
VERTEX
8
0
10
7254
20
2159
0
VERTEX
8
0
10
6774
20
2159
0
SEQEND
0
POLYLINE
8
0
62
255
66
1
40
1
41
1
0
VERTEX
8
0
10
6974
20
2079
0
VERTEX
8
0
10
6974
20
2039
0
VERTEX
8
0
10
7254
20
2039
0
VERTEX
8
0
10
7254
20
2079
0
VERTEX
8
0
10
6974
20
2079
0
SEQEND
0
POLYLINE
8
0
62
255
66
1
40
1
41
1
0
VERTEX
8
0
10
6974
20
2039
0
VERTEX
8
0
10
6974
20
1999
0
VERTEX
8
0
10
7254
20
1999
0
VERTEX
8
0
10
7254
20
2039
0
VERTEX
8
0
10
6974
20
2039
0
SEQEND
0
POLYLINE
8
0
62
255
66
1
40
1
41
1
0
VERTEX
8
0
10
6974
20
1999
0
VERTEX
8
0
10
6974
20
1979
0
VERTEX
8
0
10
7254
20
1979
0
VERTEX
8
0
10
7254
20
1999
0
VERTEX
8
0
10
6974
20
1999
0
SEQEND
0
POLYLINE
8
0
62
255
66
1
40
1
41
1
0
VERTEX
8
0
10
6974
20
2119
0
VERTEX
8
0
10
6974
20
2079
0
VERTEX
8
0
10
7254
20
2079
0
VERTEX
8
0
10
7254
20
2119
0
VERTEX
8
0
10
6974
20
2119
0
SEQEND
0
POLYLINE
8
0
62
254
66
1
40
1
41
1
0
VERTEX
8
0
10
7254
20
1979
0
VERTEX
8
0
10
6974
20
1979
0
VERTEX
8
0
10
6974
20
1939
0
VERTEX
8
0
10
7254
20
1939
0
VERTEX
8
0
10
7254
20
1979
0
SEQEND
0
POLYLINE
8
0
62
254
66
1
40
1
41
1
0
VERTEX
8
0
10
7254
20
1919
0
VERTEX
8
0
10
7254
20
1939
0
VERTEX
8
0
10
6974
20
1939
0
VERTEX
8
0
10
6974
20
1919
0
VERTEX
8
0
10
7254
20
1919
0
SEQEND
0
POLYLINE
8
0
62
254
66
1
40
1
41
1
0
VERTEX
8
0
10
7254
20
1859
0
VERTEX
8
0
10
7254
20
1879
0
VERTEX
8
0
10
6974
20
1879
0
VERTEX
8
0
10
6974
20
1859
0
VERTEX
8
0
10
7254
20
1859
0
SEQEND
0
POLYLINE
8
0
62
254
66
1
40
1
41
1
0
VERTEX
8
0
10
7254
20
1879
0
VERTEX
8
0
10
7254
20
1919
0
VERTEX
8
0
10
6974
20
1919
0
VERTEX
8
0
10
6974
20
1879
0
VERTEX
8
0
10
7254
20
1879
0
SEQEND
0
POLYLINE
8
0
62
254
66
1
40
1
41
1
0
VERTEX
8
0
10
7254
20
1779
0
VERTEX
8
0
10
7254
20
1819
0
VERTEX
8
0
10
6974
20
1819
0
VERTEX
8
0
10
6974
20
1779
0
VERTEX
8
0
10
7254
20
1779
0
SEQEND
0
POLYLINE
8
0
62
254
66
1
40
1
41
1
0
VERTEX
8
0
10
7254
20
1739
0
VERTEX
8
0
10
7254
20
1779
0
VERTEX
8
0
10
6974
20
1779
0
VERTEX
8
0
10
6974
20
1739
0
VERTEX
8
0
10
7254
20
1739
0
SEQEND
0
POLYLINE
8
0
62
254
66
1
40
1
41
1
0
VERTEX
8
0
10
7254
20
1819
0
VERTEX
8
0
10
7254
20
1859
0
VERTEX
8
0
10
6974
20
1859
0
VERTEX
8
0
10
6974
20
1819
0
VERTEX
8
0
10
7254
20
1819
0
SEQEND
0
POLYLINE
8
0
62
254
66
1
40
1
41
1
0
VERTEX
8
0
10
6974
20
1519
0
VERTEX
8
0
10
6974
20
1500
0
VERTEX
8
0
10
7254
20
1500
0
VERTEX
8
0
10
7254
20
1519
0
VERTEX
8
0
10
6974
20
1519
0
SEQEND
0
POLYLINE
8
0
62
254
66
1
40
1
41
1
0
VERTEX
8
0
10
7254
20
1500
0
VERTEX
8
0
10
6974
20
1500
0
VERTEX
8
0
10
6974
20
1460
0
VERTEX
8
0
10
7254
20
1460
0
VERTEX
8
0
10
7254
20
1500
0
SEQEND
0
POLYLINE
8
0
62
254
66
1
40
1
41
1
0
VERTEX
8
0
10
6974
20
1519
0
VERTEX
8
0
10
7254
20
1519
0
VERTEX
8
0
10
7254
20
1739
0
VERTEX
8
0
10
6974
20
1739
0
VERTEX
8
0
10
6974
20
1519
0
SEQEND
0
POLYLINE
8
0
62
254
66
1
40
1
41
1
0
VERTEX
8
0
10
7254
20
1420
0
VERTEX
8
0
10
7254
20
1440
0
VERTEX
8
0
10
6974
20
1440
0
VERTEX
8
0
10
6974
20
1420
0
VERTEX
8
0
10
7254
20
1420
0
SEQEND
0
POLYLINE
8
0
62
254
66
1
40
1
41
1
0
VERTEX
8
0
10
7254
20
1440
0
VERTEX
8
0
10
7254
20
1460
0
VERTEX
8
0
10
6974
20
1460
0
VERTEX
8
0
10
6974
20
1440
0
VERTEX
8
0
10
7254
20
1440
0
SEQEND
0
POLYLINE
8
0
62
254
66
1
40
1
41
1
0
VERTEX
8
0
10
7254
20
1340
0
VERTEX
8
0
10
7254
20
1360
0
VERTEX
8
0
10
6974
20
1360
0
VERTEX
8
0
10
6974
20
1340
0
VERTEX
8
0
10
7254
20
1340
0
SEQEND
0
POLYLINE
8
0
62
254
66
1
40
1
41
1
0
VERTEX
8
0
10
7254
20
1360
0
VERTEX
8
0
10
7254
20
1380
0
VERTEX
8
0
10
6974
20
1380
0
VERTEX
8
0
10
6974
20
1360
0
VERTEX
8
0
10
7254
20
1360
0
SEQEND
0
POLYLINE
8
0
62
254
66
1
40
1
41
1
0
VERTEX
8
0
10
7254
20
1380
0
VERTEX
8
0
10
7254
20
1400
0
VERTEX
8
0
10
6974
20
1400
0
VERTEX
8
0
10
6974
20
1380
0
VERTEX
8
0
10
7254
20
1380
0
SEQEND
0
POLYLINE
8
0
62
254
66
1
40
1
41
1
0
VERTEX
8
0
10
7254
20
1400
0
VERTEX
8
0
10
7254
20
1420
0
VERTEX
8
0
10
6974
20
1420
0
VERTEX
8
0
10
6974
20
1400
0
VERTEX
8
0
10
7254
20
1400
0
SEQEND
0
POLYLINE
8
0
62
254
66
1
40
1
41
1
0
VERTEX
8
0
10
7254
20
1280
0
VERTEX
8
0
10
7254
20
1300
0
VERTEX
8
0
10
6974
20
1300
0
VERTEX
8
0
10
6974
20
1280
0
VERTEX
8
0
10
7254
20
1280
0
SEQEND
0
POLYLINE
8
0
62
254
66
1
40
1
41
1
0
VERTEX
8
0
10
7254
20
1300
0
VERTEX
8
0
10
7254
20
1320
0
VERTEX
8
0
10
6974
20
1320
0
VERTEX
8
0
10
6974
20
1300
0
VERTEX
8
0
10
7254
20
1300
0
SEQEND
0
POLYLINE
8
0
62
254
66
1
40
1
41
1
0
VERTEX
8
0
10
7254
20
1220
0
VERTEX
8
0
10
7254
20
1240
0
VERTEX
8
0
10
6974
20
1240
0
VERTEX
8
0
10
6974
20
1220
0
VERTEX
8
0
10
7254
20
1220
0
SEQEND
0
POLYLINE
8
0
62
254
66
1
40
1
41
1
0
VERTEX
8
0
10
7254
20
1240
0
VERTEX
8
0
10
7254
20
1260
0
VERTEX
8
0
10
6974
20
1260
0
VERTEX
8
0
10
6974
20
1240
0
VERTEX
8
0
10
7254
20
1240
0
SEQEND
0
POLYLINE
8
0
62
254
66
1
40
1
41
1
0
VERTEX
8
0
10
7254
20
1260
0
VERTEX
8
0
10
7254
20
1280
0
VERTEX
8
0
10
6974
20
1280
0
VERTEX
8
0
10
6974
20
1260
0
VERTEX
8
0
10
7254
20
1260
0
SEQEND
0
POLYLINE
8
0
62
254
66
1
40
1
41
1
0
VERTEX
8
0
10
7254
20
1320
0
VERTEX
8
0
10
7254
20
1340
0
VERTEX
8
0
10
6974
20
1340
0
VERTEX
8
0
10
6974
20
1320
0
VERTEX
8
0
10
7254
20
1320
0
SEQEND
0
POLYLINE
8
0
62
255
66
1
40
1
41
1
0
VERTEX
8
0
10
6974
20
1160
0
VERTEX
8
0
10
6974
20
1120
0
VERTEX
8
0
10
7254
20
1120
0
VERTEX
8
0
10
7254
20
1160
0
VERTEX
8
0
10
6974
20
1160
0
SEQEND
0
POLYLINE
8
0
62
255
66
1
40
1
41
1
0
VERTEX
8
0
10
6974
20
1180
0
VERTEX
8
0
10
6974
20
1160
0
VERTEX
8
0
10
7254
20
1160
0
VERTEX
8
0
10
7254
20
1180
0
VERTEX
8
0
10
6974
20
1180
0
SEQEND
0
POLYLINE
8
0
62
255
66
1
40
1
41
1
0
VERTEX
8
0
10
6974
20
1200
0
VERTEX
8
0
10
6974
20
1180
0
VERTEX
8
0
10
7254
20
1180
0
VERTEX
8
0
10
7254
20
1200
0
VERTEX
8
0
10
6974
20
1200
0
SEQEND
0
POLYLINE
8
0
62
255
66
1
40
1
41
1
0
VERTEX
8
0
10
7254
20
1120
0
VERTEX
8
0
10
6974
20
1120
0
VERTEX
8
0
10
6974
20
740
0
VERTEX
8
0
10
7254
20
740
0
VERTEX
8
0
10
7254
20
1120
0
SEQEND
0
POLYLINE
8
0
62
255
66
1
40
1
41
1
0
VERTEX
8
0
10
6974
20
1200
0
VERTEX
8
0
10
7254
20
1200
0
VERTEX
8
0
10
7254
20
1220
0
VERTEX
8
0
10
6974
20
1220
0
VERTEX
8
0
10
6974
20
1200
0
SEQEND
0
POLYLINE
8
0
62
254
66
1
40
1
41
1
0
VERTEX
8
0
10
9073
20
2479
0
VERTEX
8
0
10
9053
20
2479
0
VERTEX
8
0
10
9053
20
2219
0
VERTEX
8
0
10
9073
20
2219
0
VERTEX
8
0
10
9073
20
2479
0
SEQEND
0
POLYLINE
8
0
62
254
66
1
40
1
41
1
0
VERTEX
8
0
10
9073
20
2219
0
VERTEX
8
0
10
9053
20
2219
0
VERTEX
8
0
10
9053
20
2199
0
VERTEX
8
0
10
9053
20
2159
0
VERTEX
8
0
10
9073
20
2159
0
VERTEX
8
0
10
9073
20
2219
0
SEQEND
0
POLYLINE
8
0
62
254
66
1
40
1
41
1
0
VERTEX
8
0
10
9053
20
2119
0
VERTEX
8
0
10
9073
20
2119
0
VERTEX
8
0
10
9073
20
2159
0
VERTEX
8
0
10
9053
20
2159
0
VERTEX
8
0
10
9053
20
2119
0
SEQEND
0
POLYLINE
8
0
62
254
66
1
40
1
41
1
0
VERTEX
8
0
10
9073
20
2119
0
VERTEX
8
0
10
9053
20
2119
0
VERTEX
8
0
10
9053
20
2079
0
VERTEX
8
0
10
9073
20
2079
0
VERTEX
8
0
10
9073
20
2119
0
SEQEND
0
POLYLINE
8
0
62
255
66
1
40
1
41
1
0
VERTEX
8
0
10
9053
20
2159
0
VERTEX
8
0
10
9053
20
2199
0
VERTEX
8
0
10
8833
20
2199
0
VERTEX
8
0
10
8833
20
2159
0
VERTEX
8
0
10
9053
20
2159
0
SEQEND
0
POLYLINE
8
0
62
255
66
1
40
1
41
1
0
VERTEX
8
0
10
9053
20
2119
0
VERTEX
8
0
10
9053
20
2159
0
VERTEX
8
0
10
8833
20
2159
0
VERTEX
8
0
10
8833
20
2119
0
VERTEX
8
0
10
9053
20
2119
0
SEQEND
0
POLYLINE
8
0
62
253
66
1
40
1
41
1
0
VERTEX
8
0
10
9073
20
2039
0
VERTEX
8
0
10
9073
20
2079
0
VERTEX
8
0
10
9053
20
2079
0
VERTEX
8
0
10
9053
20
2039
0
VERTEX
8
0
10
9073
20
2039
0
SEQEND
0
POLYLINE
8
0
62
255
66
1
40
1
41
1
0
VERTEX
8
0
10
9053
20
2039
0
VERTEX
8
0
10
9053
20
2079
0
VERTEX
8
0
10
8833
20
2079
0
VERTEX
8
0
10
8833
20
2039
0
VERTEX
8
0
10
9053
20
2039
0
SEQEND
0
POLYLINE
8
0
62
253
66
1
40
1
41
1
0
VERTEX
8
0
10
9053
20
1979
0
VERTEX
8
0
10
9053
20
1959
0
VERTEX
8
0
10
9073
20
1959
0
VERTEX
8
0
10
9073
20
1999
0
VERTEX
8
0
10
9053
20
1999
0
VERTEX
8
0
10
9053
20
1979
0
SEQEND
0
POLYLINE
8
0
62
254
66
1
40
1
41
1
0
VERTEX
8
0
10
9053
20
1959
0
VERTEX
8
0
10
9053
20
1979
0
VERTEX
8
0
10
8833
20
1979
0
VERTEX
8
0
10
8833
20
1959
0
VERTEX
8
0
10
8833
20
1939
0
VERTEX
8
0
10
9053
20
1939
0
VERTEX
8
0
10
9053
20
1959
0
SEQEND
0
POLYLINE
8
0
62
255
66
1
40
1
41
1
0
VERTEX
8
0
10
9053
20
1979
0
VERTEX
8
0
10
9053
20
1999
0
VERTEX
8
0
10
8833
20
1999
0
VERTEX
8
0
10
8833
20
1979
0
VERTEX
8
0
10
9053
20
1979
0
SEQEND
0
POLYLINE
8
0
62
253
66
1
40
1
41
1
0
VERTEX
8
0
10
9053
20
1999
0
VERTEX
8
0
10
9073
20
1999
0
VERTEX
8
0
10
9073
20
2039
0
VERTEX
8
0
10
9053
20
2039
0
VERTEX
8
0
10
9053
20
1999
0
SEQEND
0
POLYLINE
8
0
62
253
66
1
40
1
41
1
0
VERTEX
8
0
10
9073
20
1959
0
VERTEX
8
0
10
9053
20
1959
0
VERTEX
8
0
10
9053
20
1939
0
VERTEX
8
0
10
9053
20
1919
0
VERTEX
8
0
10
9053
20
1899
0
VERTEX
8
0
10
9073
20
1899
0
VERTEX
8
0
10
9073
20
1959
0
SEQEND
0
POLYLINE
8
0
62
255
66
1
40
1
41
1
0
VERTEX
8
0
10
9053
20
1999
0
VERTEX
8
0
10
9053
20
2039
0
VERTEX
8
0
10
8833
20
2039
0
VERTEX
8
0
10
8833
20
1999
0
VERTEX
8
0
10
9053
20
1999
0
SEQEND
0
POLYLINE
8
0
62
255
66
1
40
1
41
1
0
VERTEX
8
0
10
9053
20
2079
0
VERTEX
8
0
10
9053
20
2119
0
VERTEX
8
0
10
8833
20
2119
0
VERTEX
8
0
10
8833
20
2079
0
VERTEX
8
0
10
9053
20
2079
0
SEQEND
0
POLYLINE
8
0
62
255
66
1
40
1
41
1
0
VERTEX
8
0
10
9053
20
2199
0
VERTEX
8
0
10
9053
20
2219
0
VERTEX
8
0
10
9053
20
2479
0
VERTEX
8
0
10
8833
20
2479
0
VERTEX
8
0
10
8833
20
2219
0
VERTEX
8
0
10
8833
20
2199
0
VERTEX
8
0
10
9053
20
2199
0
SEQEND
0
POLYLINE
8
0
62
254
66
1
40
1
41
1
0
VERTEX
8
0
10
8833
20
2479
0
VERTEX
8
0
10
8813
20
2479
0
VERTEX
8
0
10
8813
20
2219
0
VERTEX
8
0
10
8833
20
2219
0
VERTEX
8
0
10
8833
20
2479
0
SEQEND
0
POLYLINE
8
0
62
254
66
1
40
1
41
1
0
VERTEX
8
0
10
8833
20
2219
0
VERTEX
8
0
10
8813
20
2219
0
VERTEX
8
0
10
8813
20
2159
0
VERTEX
8
0
10
8833
20
2159
0
VERTEX
8
0
10
8833
20
2199
0
VERTEX
8
0
10
8833
20
2219
0
SEQEND
0
POLYLINE
8
0
62
254
66
1
40
1
41
1
0
VERTEX
8
0
10
8833
20
2159
0
VERTEX
8
0
10
8813
20
2159
0
VERTEX
8
0
10
8813
20
2119
0
VERTEX
8
0
10
8833
20
2119
0
VERTEX
8
0
10
8833
20
2159
0
SEQEND
0
POLYLINE
8
0
62
254
66
1
40
1
41
1
0
VERTEX
8
0
10
8833
20
2119
0
VERTEX
8
0
10
8813
20
2119
0
VERTEX
8
0
10
8813
20
2079
0
VERTEX
8
0
10
8833
20
2079
0
VERTEX
8
0
10
8833
20
2119
0
SEQEND
0
POLYLINE
8
0
62
253
66
1
40
1
41
1
0
VERTEX
8
0
10
8813
20
2079
0
VERTEX
8
0
10
8813
20
2039
0
VERTEX
8
0
10
8833
20
2039
0
VERTEX
8
0
10
8833
20
2079
0
VERTEX
8
0
10
8813
20
2079
0
SEQEND
0
POLYLINE
8
0
62
253
66
1
40
1
41
1
0
VERTEX
8
0
10
8833
20
2039
0
VERTEX
8
0
10
8813
20
2039
0
VERTEX
8
0
10
8813
20
1999
0
VERTEX
8
0
10
8833
20
1999
0
VERTEX
8
0
10
8833
20
2039
0
SEQEND
0
POLYLINE
8
0
62
253
66
1
40
1
41
1
0
VERTEX
8
0
10
8833
20
1999
0
VERTEX
8
0
10
8813
20
1999
0
VERTEX
8
0
10
8813
20
1959
0
VERTEX
8
0
10
8833
20
1959
0
VERTEX
8
0
10
8833
20
1979
0
VERTEX
8
0
10
8833
20
1999
0
SEQEND
0
POLYLINE
8
0
62
253
66
1
40
1
41
1
0
VERTEX
8
0
10
8833
20
1959
0
VERTEX
8
0
10
8813
20
1959
0
VERTEX
8
0
10
8813
20
1899
0
VERTEX
8
0
10
8833
20
1899
0
VERTEX
8
0
10
8833
20
1919
0
VERTEX
8
0
10
8833
20
1939
0
VERTEX
8
0
10
8833
20
1959
0
SEQEND
0
POLYLINE
8
0
62
254
66
1
40
1
41
1
0
VERTEX
8
0
10
8833
20
1919
0
VERTEX
8
0
10
8833
20
1899
0
VERTEX
8
0
10
8833
20
1879
0
VERTEX
8
0
10
9053
20
1879
0
VERTEX
8
0
10
9053
20
1899
0
VERTEX
8
0
10
9053
20
1919
0
VERTEX
8
0
10
8833
20
1919
0
SEQEND
0
POLYLINE
8
0
62
254
66
1
40
1
41
1
0
VERTEX
8
0
10
8833
20
1939
0
VERTEX
8
0
10
8833
20
1919
0
VERTEX
8
0
10
9053
20
1919
0
VERTEX
8
0
10
9053
20
1939
0
VERTEX
8
0
10
8833
20
1939
0
SEQEND
0
POLYLINE
8
0
62
253
66
1
40
1
41
1
0
VERTEX
8
0
10
8833
20
1899
0
VERTEX
8
0
10
8813
20
1899
0
VERTEX
8
0
10
8813
20
1859
0
VERTEX
8
0
10
8833
20
1859
0
VERTEX
8
0
10
8833
20
1879
0
VERTEX
8
0
10
8833
20
1899
0
SEQEND
0
POLYLINE
8
0
62
254
66
1
40
1
41
1
0
VERTEX
8
0
10
8833
20
1879
0
VERTEX
8
0
10
8833
20
1859
0
VERTEX
8
0
10
9053
20
1859
0
VERTEX
8
0
10
9053
20
1879
0
VERTEX
8
0
10
8833
20
1879
0
SEQEND
0
POLYLINE
8
0
62
253
66
1
40
1
41
1
0
VERTEX
8
0
10
8833
20
1859
0
VERTEX
8
0
10
8813
20
1859
0
VERTEX
8
0
10
8813
20
1799
0
VERTEX
8
0
10
8833
20
1799
0
VERTEX
8
0
10
8833
20
1819
0
VERTEX
8
0
10
8833
20
1859
0
SEQEND
0
POLYLINE
8
0
62
254
66
1
40
1
41
1
0
VERTEX
8
0
10
8833
20
1799
0
VERTEX
8
0
10
8833
20
1779
0
VERTEX
8
0
10
9053
20
1779
0
VERTEX
8
0
10
9053
20
1799
0
VERTEX
8
0
10
9053
20
1819
0
VERTEX
8
0
10
8833
20
1819
0
VERTEX
8
0
10
8833
20
1799
0
SEQEND
0
POLYLINE
8
0
62
253
66
1
40
1
41
1
0
VERTEX
8
0
10
8833
20
1779
0
VERTEX
8
0
10
8833
20
1799
0
VERTEX
8
0
10
8813
20
1799
0
VERTEX
8
0
10
8813
20
1759
0
VERTEX
8
0
10
8833
20
1759
0
VERTEX
8
0
10
8833
20
1779
0
SEQEND
0
POLYLINE
8
0
62
9
66
1
40
1
41
1
0
VERTEX
8
0
10
8813
20
1759
0
VERTEX
8
0
10
8813
20
1719
0
VERTEX
8
0
10
8833
20
1719
0
VERTEX
8
0
10
8833
20
1739
0
VERTEX
8
0
10
8833
20
1759
0
VERTEX
8
0
10
8813
20
1759
0
SEQEND
0
POLYLINE
8
0
62
254
66
1
40
1
41
1
0
VERTEX
8
0
10
8833
20
1739
0
VERTEX
8
0
10
8833
20
1719
0
VERTEX
8
0
10
8833
20
1559
0
VERTEX
8
0
10
8833
20
1519
0
VERTEX
8
0
10
9053
20
1519
0
VERTEX
8
0
10
9053
20
1559
0
VERTEX
8
0
10
9053
20
1719
0
VERTEX
8
0
10
9053
20
1739
0
VERTEX
8
0
10
8833
20
1739
0
SEQEND
0
POLYLINE
8
0
62
254
66
1
40
1
41
1
0
VERTEX
8
0
10
8833
20
1759
0
VERTEX
8
0
10
8833
20
1739
0
VERTEX
8
0
10
9053
20
1739
0
VERTEX
8
0
10
9053
20
1759
0
VERTEX
8
0
10
9053
20
1779
0
VERTEX
8
0
10
8833
20
1779
0
VERTEX
8
0
10
8833
20
1759
0
SEQEND
0
POLYLINE
8
0
62
9
66
1
40
1
41
1
0
VERTEX
8
0
10
8833
20
1719
0
VERTEX
8
0
10
8813
20
1719
0
VERTEX
8
0
10
8813
20
1559
0
VERTEX
8
0
10
8833
20
1559
0
VERTEX
8
0
10
8833
20
1719
0
SEQEND
0
POLYLINE
8
0
62
254
66
1
40
1
41
1
0
VERTEX
8
0
10
8833
20
1859
0
VERTEX
8
0
10
8833
20
1819
0
VERTEX
8
0
10
9053
20
1819
0
VERTEX
8
0
10
9053
20
1859
0
VERTEX
8
0
10
8833
20
1859
0
SEQEND
0
POLYLINE
8
0
62
253
66
1
40
1
41
1
0
VERTEX
8
0
10
8833
20
1559
0
VERTEX
8
0
10
8813
20
1559
0
VERTEX
8
0
10
8813
20
1500
0
VERTEX
8
0
10
8833
20
1500
0
VERTEX
8
0
10
8833
20
1519
0
VERTEX
8
0
10
8833
20
1559
0
SEQEND
0
POLYLINE
8
0
62
254
66
1
40
1
41
1
0
VERTEX
8
0
10
8833
20
1519
0
VERTEX
8
0
10
8833
20
1500
0
VERTEX
8
0
10
9053
20
1500
0
VERTEX
8
0
10
9053
20
1519
0
VERTEX
8
0
10
8833
20
1519
0
SEQEND
0
POLYLINE
8
0
62
253
66
1
40
1
41
1
0
VERTEX
8
0
10
8833
20
1500
0
VERTEX
8
0
10
8813
20
1500
0
VERTEX
8
0
10
8813
20
1440
0
VERTEX
8
0
10
8833
20
1440
0
VERTEX
8
0
10
8833
20
1460
0
VERTEX
8
0
10
8833
20
1500
0
SEQEND
0
POLYLINE
8
0
62
254
66
1
40
1
41
1
0
VERTEX
8
0
10
8833
20
1440
0
VERTEX
8
0
10
8833
20
1420
0
VERTEX
8
0
10
9053
20
1420
0
VERTEX
8
0
10
9053
20
1440
0
VERTEX
8
0
10
8833
20
1440
0
SEQEND
0
POLYLINE
8
0
62
252
66
1
40
1
41
1
0
VERTEX
8
0
10
8833
20
1420
0
VERTEX
8
0
10
8833
20
1440
0
VERTEX
8
0
10
8813
20
1440
0
VERTEX
8
0
10
8813
20
1380
0
VERTEX
8
0
10
8833
20
1380
0
VERTEX
8
0
10
8833
20
1400
0
VERTEX
8
0
10
8833
20
1420
0
SEQEND
0
POLYLINE
8
0
62
254
66
1
40
1
41
1
0
VERTEX
8
0
10
8833
20
1460
0
VERTEX
8
0
10
8833
20
1440
0
VERTEX
8
0
10
9053
20
1440
0
VERTEX
8
0
10
9053
20
1460
0
VERTEX
8
0
10
8833
20
1460
0
SEQEND
0
POLYLINE
8
0
62
252
66
1
40
1
41
1
0
VERTEX
8
0
10
8833
20
1380
0
VERTEX
8
0
10
8813
20
1380
0
VERTEX
8
0
10
8813
20
1340
0
VERTEX
8
0
10
8833
20
1340
0
VERTEX
8
0
10
8833
20
1360
0
VERTEX
8
0
10
8833
20
1380
0
SEQEND
0
POLYLINE
8
0
62
254
66
1
40
1
41
1
0
VERTEX
8
0
10
8833
20
1400
0
VERTEX
8
0
10
8833
20
1380
0
VERTEX
8
0
10
9053
20
1380
0
VERTEX
8
0
10
9053
20
1400
0
VERTEX
8
0
10
8833
20
1400
0
SEQEND
0
POLYLINE
8
0
62
254
66
1
40
1
41
1
0
VERTEX
8
0
10
8833
20
1360
0
VERTEX
8
0
10
8833
20
1340
0
VERTEX
8
0
10
9053
20
1340
0
VERTEX
8
0
10
9053
20
1360
0
VERTEX
8
0
10
8833
20
1360
0
SEQEND
0
POLYLINE
8
0
62
9
66
1
40
1
41
1
0
VERTEX
8
0
10
8833
20
1340
0
VERTEX
8
0
10
8813
20
1340
0
VERTEX
8
0
10
8813
20
1300
0
VERTEX
8
0
10
8833
20
1300
0
VERTEX
8
0
10
8833
20
1320
0
VERTEX
8
0
10
8833
20
1340
0
SEQEND
0
POLYLINE
8
0
62
254
66
1
40
1
41
1
0
VERTEX
8
0
10
8833
20
1380
0
VERTEX
8
0
10
8833
20
1360
0
VERTEX
8
0
10
9053
20
1360
0
VERTEX
8
0
10
9053
20
1380
0
VERTEX
8
0
10
8833
20
1380
0
SEQEND
0
POLYLINE
8
0
62
254
66
1
40
1
41
1
0
VERTEX
8
0
10
8833
20
1420
0
VERTEX
8
0
10
8833
20
1400
0
VERTEX
8
0
10
9053
20
1400
0
VERTEX
8
0
10
9053
20
1420
0
VERTEX
8
0
10
8833
20
1420
0
SEQEND
0
POLYLINE
8
0
62
254
66
1
40
1
41
1
0
VERTEX
8
0
10
8833
20
1300
0
VERTEX
8
0
10
8833
20
1280
0
VERTEX
8
0
10
9053
20
1280
0
VERTEX
8
0
10
9053
20
1300
0
VERTEX
8
0
10
8833
20
1300
0
SEQEND
0
POLYLINE
8
0
62
9
66
1
40
1
41
1
0
VERTEX
8
0
10
8833
20
1280
0
VERTEX
8
0
10
8833
20
1300
0
VERTEX
8
0
10
8813
20
1300
0
VERTEX
8
0
10
8813
20
1260
0
VERTEX
8
0
10
8833
20
1260
0
VERTEX
8
0
10
8833
20
1280
0
SEQEND
0
POLYLINE
8
0
62
254
66
1
40
1
41
1
0
VERTEX
8
0
10
8833
20
1320
0
VERTEX
8
0
10
8833
20
1300
0
VERTEX
8
0
10
9053
20
1300
0
VERTEX
8
0
10
9053
20
1320
0
VERTEX
8
0
10
8833
20
1320
0
SEQEND
0
POLYLINE
8
0
62
9
66
1
40
1
41
1
0
VERTEX
8
0
10
8833
20
1260
0
VERTEX
8
0
10
8813
20
1260
0
VERTEX
8
0
10
8813
20
1220
0
VERTEX
8
0
10
8833
20
1220
0
VERTEX
8
0
10
8833
20
1240
0
VERTEX
8
0
10
8833
20
1260
0
SEQEND
0
POLYLINE
8
0
62
9
66
1
40
1
41
1
0
VERTEX
8
0
10
8833
20
1220
0
VERTEX
8
0
10
8813
20
1220
0
VERTEX
8
0
10
8813
20
1160
0
VERTEX
8
0
10
8833
20
1160
0
VERTEX
8
0
10
8833
20
1180
0
VERTEX
8
0
10
8833
20
1200
0
VERTEX
8
0
10
8833
20
1220
0
SEQEND
0
POLYLINE
8
0
62
254
66
1
40
1
41
1
0
VERTEX
8
0
10
8833
20
1240
0
VERTEX
8
0
10
8833
20
1220
0
VERTEX
8
0
10
9053
20
1220
0
VERTEX
8
0
10
9053
20
1240
0
VERTEX
8
0
10
8833
20
1240
0
SEQEND
0
POLYLINE
8
0
62
254
66
1
40
1
41
1
0
VERTEX
8
0
10
8833
20
1260
0
VERTEX
8
0
10
8833
20
1240
0
VERTEX
8
0
10
9053
20
1240
0
VERTEX
8
0
10
9053
20
1260
0
VERTEX
8
0
10
8833
20
1260
0
SEQEND
0
POLYLINE
8
0
62
254
66
1
40
1
41
1
0
VERTEX
8
0
10
8833
20
1280
0
VERTEX
8
0
10
8833
20
1260
0
VERTEX
8
0
10
9053
20
1260
0
VERTEX
8
0
10
9053
20
1280
0
VERTEX
8
0
10
8833
20
1280
0
SEQEND
0
POLYLINE
8
0
62
254
66
1
40
1
41
1
0
VERTEX
8
0
10
8833
20
1340
0
VERTEX
8
0
10
8833
20
1320
0
VERTEX
8
0
10
9053
20
1320
0
VERTEX
8
0
10
9053
20
1340
0
VERTEX
8
0
10
8833
20
1340
0
SEQEND
0
POLYLINE
8
0
62
255
66
1
40
1
41
1
0
VERTEX
8
0
10
8833
20
1180
0
VERTEX
8
0
10
8833
20
1160
0
VERTEX
8
0
10
9053
20
1160
0
VERTEX
8
0
10
9053
20
1180
0
VERTEX
8
0
10
8833
20
1180
0
SEQEND
0
POLYLINE
8
0
62
255
66
1
40
1
41
1
0
VERTEX
8
0
10
8833
20
1200
0
VERTEX
8
0
10
8833
20
1180
0
VERTEX
8
0
10
9053
20
1180
0
VERTEX
8
0
10
9053
20
1200
0
VERTEX
8
0
10
8833
20
1200
0
SEQEND
0
POLYLINE
8
0
62
9
66
1
40
1
41
1
0
VERTEX
8
0
10
8833
20
1160
0
VERTEX
8
0
10
8813
20
1160
0
VERTEX
8
0
10
8813
20
1040
0
VERTEX
8
0
10
8833
20
1040
0
VERTEX
8
0
10
8833
20
1160
0
SEQEND
0
POLYLINE
8
0
62
251
66
1
40
1
41
1
0
VERTEX
8
0
10
8833
20
1040
0
VERTEX
8
0
10
8813
20
1040
0
VERTEX
8
0
10
8813
20
1000
0
VERTEX
8
0
10
8833
20
1000
0
VERTEX
8
0
10
8833
20
1040
0
SEQEND
0
POLYLINE
8
0
62
250
66
1
40
1
41
1
0
VERTEX
8
0
10
8833
20
1000
0
VERTEX
8
0
10
8813
20
1000
0
VERTEX
8
0
10
8813
20
960
0
VERTEX
8
0
10
8833
20
960
0
VERTEX
8
0
10
8833
20
1000
0
SEQEND
0
POLYLINE
8
0
62
255
66
1
40
1
41
1
0
VERTEX
8
0
10
8833
20
1040
0
VERTEX
8
0
10
8833
20
1000
0
VERTEX
8
0
10
8833
20
960
0
VERTEX
8
0
10
8833
20
940
0
VERTEX
8
0
10
8853
20
940
0
VERTEX
8
0
10
8853
20
900
0
VERTEX
8
0
10
8853
20
880
0
VERTEX
8
0
10
8873
20
880
0
VERTEX
8
0
10
8873
20
840
0
VERTEX
8
0
10
8893
20
840
0
VERTEX
8
0
10
8893
20
820
0
VERTEX
8
0
10
8913
20
820
0
VERTEX
8
0
10
8913
20
800
0
VERTEX
8
0
10
8953
20
800
0
VERTEX
8
0
10
8953
20
780
0
VERTEX
8
0
10
8973
20
780
0
VERTEX
8
0
10
9013
20
780
0
VERTEX
8
0
10
9013
20
760
0
VERTEX
8
0
10
9193
20
760
0
VERTEX
8
0
10
9193
20
780
0
VERTEX
8
0
10
9233
20
780
0
VERTEX
8
0
10
9233
20
980
0
VERTEX
8
0
10
9213
20
980
0
VERTEX
8
0
10
9133
20
980
0
VERTEX
8
0
10
9133
20
1000
0
VERTEX
8
0
10
9093
20
1000
0
VERTEX
8
0
10
9093
20
1020
0
VERTEX
8
0
10
9073
20
1020
0
VERTEX
8
0
10
9073
20
1060
0
VERTEX
8
0
10
9073
20
1080
0
VERTEX
8
0
10
9053
20
1080
0
VERTEX
8
0
10
9053
20
1160
0
VERTEX
8
0
10
8833
20
1160
0
VERTEX
8
0
10
8833
20
1040
0
SEQEND
0
POLYLINE
8
0
62
255
66
1
40
1
41
1
0
VERTEX
8
0
10
8833
20
1220
0
VERTEX
8
0
10
8833
20
1200
0
VERTEX
8
0
10
9053
20
1200
0
VERTEX
8
0
10
9053
20
1220
0
VERTEX
8
0
10
8833
20
1220
0
SEQEND
0
POLYLINE
8
0
62
254
66
1
40
1
41
1
0
VERTEX
8
0
10
8833
20
1500
0
VERTEX
8
0
10
8833
20
1460
0
VERTEX
8
0
10
9053
20
1460
0
VERTEX
8
0
10
9053
20
1500
0
VERTEX
8
0
10
8833
20
1500
0
SEQEND
0
POLYLINE
8
0
62
253
66
1
40
1
41
1
0
VERTEX
8
0
10
9053
20
1879
0
VERTEX
8
0
10
9053
20
1859
0
VERTEX
8
0
10
9073
20
1859
0
VERTEX
8
0
10
9073
20
1899
0
VERTEX
8
0
10
9053
20
1899
0
VERTEX
8
0
10
9053
20
1879
0
SEQEND
0
POLYLINE
8
0
62
253
66
1
40
1
41
1
0
VERTEX
8
0
10
9073
20
1859
0
VERTEX
8
0
10
9053
20
1859
0
VERTEX
8
0
10
9053
20
1819
0
VERTEX
8
0
10
9053
20
1799
0
VERTEX
8
0
10
9073
20
1799
0
VERTEX
8
0
10
9073
20
1859
0
SEQEND
0
POLYLINE
8
0
62
253
66
1
40
1
41
1
0
VERTEX
8
0
10
9053
20
1799
0
VERTEX
8
0
10
9053
20
1779
0
VERTEX
8
0
10
9053
20
1759
0
VERTEX
8
0
10
9073
20
1759
0
VERTEX
8
0
10
9073
20
1799
0
VERTEX
8
0
10
9053
20
1799
0
SEQEND
0
POLYLINE
8
0
62
9
66
1
40
1
41
1
0
VERTEX
8
0
10
9053
20
1739
0
VERTEX
8
0
10
9053
20
1719
0
VERTEX
8
0
10
9073
20
1719
0
VERTEX
8
0
10
9073
20
1759
0
VERTEX
8
0
10
9053
20
1759
0
VERTEX
8
0
10
9053
20
1739
0
SEQEND
0
POLYLINE
8
0
62
9
66
1
40
1
41
1
0
VERTEX
8
0
10
9073
20
1719
0
VERTEX
8
0
10
9053
20
1719
0
VERTEX
8
0
10
9053
20
1559
0
VERTEX
8
0
10
9073
20
1559
0
VERTEX
8
0
10
9073
20
1719
0
SEQEND
0
POLYLINE
8
0
62
253
66
1
40
1
41
1
0
VERTEX
8
0
10
9053
20
1519
0
VERTEX
8
0
10
9053
20
1500
0
VERTEX
8
0
10
9073
20
1500
0
VERTEX
8
0
10
9073
20
1559
0
VERTEX
8
0
10
9053
20
1559
0
VERTEX
8
0
10
9053
20
1519
0
SEQEND
0
POLYLINE
8
0
62
253
66
1
40
1
41
1
0
VERTEX
8
0
10
9073
20
1500
0
VERTEX
8
0
10
9053
20
1500
0
VERTEX
8
0
10
9053
20
1460
0
VERTEX
8
0
10
9053
20
1440
0
VERTEX
8
0
10
9073
20
1440
0
VERTEX
8
0
10
9073
20
1500
0
SEQEND
0
POLYLINE
8
0
62
252
66
1
40
1
41
1
0
VERTEX
8
0
10
9053
20
1440
0
VERTEX
8
0
10
9053
20
1420
0
VERTEX
8
0
10
9053
20
1400
0
VERTEX
8
0
10
9053
20
1380
0
VERTEX
8
0
10
9073
20
1380
0
VERTEX
8
0
10
9073
20
1440
0
VERTEX
8
0
10
9053
20
1440
0
SEQEND
0
POLYLINE
8
0
62
252
66
1
40
1
41
1
0
VERTEX
8
0
10
9053
20
1360
0
VERTEX
8
0
10
9053
20
1340
0
VERTEX
8
0
10
9073
20
1340
0
VERTEX
8
0
10
9073
20
1380
0
VERTEX
8
0
10
9053
20
1380
0
VERTEX
8
0
10
9053
20
1360
0
SEQEND
0
POLYLINE
8
0
62
9
66
1
40
1
41
1
0
VERTEX
8
0
10
9073
20
1340
0
VERTEX
8
0
10
9053
20
1340
0
VERTEX
8
0
10
9053
20
1320
0
VERTEX
8
0
10
9053
20
1300
0
VERTEX
8
0
10
9073
20
1300
0
VERTEX
8
0
10
9073
20
1340
0
SEQEND
0
POLYLINE
8
0
62
9
66
1
40
1
41
1
0
VERTEX
8
0
10
9053
20
1300
0
VERTEX
8
0
10
9053
20
1280
0
VERTEX
8
0
10
9053
20
1260
0
VERTEX
8
0
10
9073
20
1260
0
VERTEX
8
0
10
9073
20
1300
0
VERTEX
8
0
10
9053
20
1300
0
SEQEND
0
POLYLINE
8
0
62
9
66
1
40
1
41
1
0
VERTEX
8
0
10
9053
20
1240
0
VERTEX
8
0
10
9053
20
1220
0
VERTEX
8
0
10
9073
20
1220
0
VERTEX
8
0
10
9073
20
1260
0
VERTEX
8
0
10
9053
20
1260
0
VERTEX
8
0
10
9053
20
1240
0
SEQEND
0
POLYLINE
8
0
62
9
66
1
40
1
41
1
0
VERTEX
8
0
10
9073
20
1220
0
VERTEX
8
0
10
9053
20
1220
0
VERTEX
8
0
10
9053
20
1200
0
VERTEX
8
0
10
9053
20
1180
0
VERTEX
8
0
10
9053
20
1160
0
VERTEX
8
0
10
9073
20
1160
0
VERTEX
8
0
10
9073
20
1220
0
SEQEND
0
POLYLINE
8
0
62
253
66
1
40
1
41
1
0
VERTEX
8
0
10
9073
20
1160
0
VERTEX
8
0
10
9053
20
1160
0
VERTEX
8
0
10
9053
20
1080
0
VERTEX
8
0
10
9073
20
1080
0
VERTEX
8
0
10
9073
20
1160
0
SEQEND
0
POLYLINE
8
0
62
47
66
1
40
1
41
1
0
VERTEX
8
0
10
9093
20
1020
0
VERTEX
8
0
10
9093
20
1060
0
VERTEX
8
0
10
9073
20
1060
0
VERTEX
8
0
10
9073
20
1020
0
VERTEX
8
0
10
9093
20
1020
0
SEQEND
0
POLYLINE
8
0
62
250
66
1
40
1
41
1
0
VERTEX
8
0
10
9133
20
1000
0
VERTEX
8
0
10
9133
20
980
0
VERTEX
8
0
10
9213
20
980
0
VERTEX
8
0
10
9213
20
1000
0
VERTEX
8
0
10
9133
20
1000
0
SEQEND
0
POLYLINE
8
0
62
251
66
1
40
1
41
1
0
VERTEX
8
0
10
9213
20
1000
0
VERTEX
8
0
10
9213
20
980
0
VERTEX
8
0
10
9233
20
980
0
VERTEX
8
0
10
9253
20
980
0
VERTEX
8
0
10
9253
20
1000
0
VERTEX
8
0
10
9213
20
1000
0
SEQEND
0
POLYLINE
8
0
62
253
66
1
40
1
41
1
0
VERTEX
8
0
10
9253
20
980
0
VERTEX
8
0
10
9233
20
980
0
VERTEX
8
0
10
9233
20
780
0
VERTEX
8
0
10
9253
20
780
0
VERTEX
8
0
10
9253
20
980
0
SEQEND
0
POLYLINE
8
0
62
252
66
1
40
1
41
1
0
VERTEX
8
0
10
9193
20
780
0
VERTEX
8
0
10
9193
20
760
0
VERTEX
8
0
10
9233
20
760
0
VERTEX
8
0
10
9233
20
780
0
VERTEX
8
0
10
9193
20
780
0
SEQEND
0
POLYLINE
8
0
62
250
66
1
40
1
41
1
0
VERTEX
8
0
10
8973
20
780
0
VERTEX
8
0
10
8973
20
760
0
VERTEX
8
0
10
9013
20
760
0
VERTEX
8
0
10
9013
20
780
0
VERTEX
8
0
10
8973
20
780
0
SEQEND
0
POLYLINE
8
0
62
251
66
1
40
1
41
1
0
VERTEX
8
0
10
8853
20
940
0
VERTEX
8
0
10
8833
20
940
0
VERTEX
8
0
10
8833
20
900
0
VERTEX
8
0
10
8853
20
900
0
VERTEX
8
0
10
8853
20
940
0
SEQEND
0
POLYLINE
8
0
62
252
66
1
40
1
41
1
0
VERTEX
8
0
10
8693
20
2559
0
VERTEX
8
0
10
8673
20
2559
0
VERTEX
8
0
10
8673
20
2319
0
VERTEX
8
0
10
8693
20
2319
0
VERTEX
8
0
10
8693
20
2559
0
SEQEND
0
POLYLINE
8
0
62
250
66
1
40
1
41
1
0
VERTEX
8
0
10
8433
20
2559
0
VERTEX
8
0
10
8413
20
2559
0
VERTEX
8
0
10
8413
20
2319
0
VERTEX
8
0
10
8433
20
2319
0
VERTEX
8
0
10
8433
20
2559
0
SEQEND
0
POLYLINE
8
0
62
255
66
1
40
1
41
1
0
VERTEX
8
0
10
8433
20
2319
0
VERTEX
8
0
10
8673
20
2319
0
VERTEX
8
0
10
8673
20
2559
0
VERTEX
8
0
10
8433
20
2559
0
VERTEX
8
0
10
8433
20
2319
0
SEQEND
0
POLYLINE
8
0
62
250
66
1
40
1
41
1
0
VERTEX
8
0
10
8413
20
2079
0
VERTEX
8
0
10
8413
20
2039
0
VERTEX
8
0
10
8433
20
2039
0
VERTEX
8
0
10
8433
20
2079
0
VERTEX
8
0
10
8413
20
2079
0
SEQEND
0
POLYLINE
8
0
62
255
66
1
40
1
41
1
0
VERTEX
8
0
10
8433
20
2079
0
VERTEX
8
0
10
8433
20
2039
0
VERTEX
8
0
10
8673
20
2039
0
VERTEX
8
0
10
8673
20
2079
0
VERTEX
8
0
10
8433
20
2079
0
SEQEND
0
POLYLINE
8
0
62
250
66
1
40
1
41
1
0
VERTEX
8
0
10
8433
20
2039
0
VERTEX
8
0
10
8413
20
2039
0
VERTEX
8
0
10
8413
20
1959
0
VERTEX
8
0
10
8433
20
1959
0
VERTEX
8
0
10
8433
20
1979
0
VERTEX
8
0
10
8433
20
1999
0
VERTEX
8
0
10
8433
20
2039
0
SEQEND
0
POLYLINE
8
0
62
254
66
1
40
1
41
1
0
VERTEX
8
0
10
8433
20
1979
0
VERTEX
8
0
10
8433
20
1959
0
VERTEX
8
0
10
8433
20
1939
0
VERTEX
8
0
10
8673
20
1939
0
VERTEX
8
0
10
8673
20
1959
0
VERTEX
8
0
10
8673
20
1979
0
VERTEX
8
0
10
8433
20
1979
0
SEQEND
0
POLYLINE
8
0
62
250
66
1
40
1
41
1
0
VERTEX
8
0
10
8433
20
1959
0
VERTEX
8
0
10
8413
20
1959
0
VERTEX
8
0
10
8413
20
1899
0
VERTEX
8
0
10
8433
20
1899
0
VERTEX
8
0
10
8433
20
1919
0
VERTEX
8
0
10
8433
20
1939
0
VERTEX
8
0
10
8433
20
1959
0
SEQEND
0
POLYLINE
8
0
62
255
66
1
40
1
41
1
0
VERTEX
8
0
10
8433
20
1999
0
VERTEX
8
0
10
8433
20
1979
0
VERTEX
8
0
10
8673
20
1979
0
VERTEX
8
0
10
8673
20
1999
0
VERTEX
8
0
10
8433
20
1999
0
SEQEND
0
POLYLINE
8
0
62
255
66
1
40
1
41
1
0
VERTEX
8
0
10
8433
20
2039
0
VERTEX
8
0
10
8433
20
1999
0
VERTEX
8
0
10
8673
20
1999
0
VERTEX
8
0
10
8673
20
2039
0
VERTEX
8
0
10
8433
20
2039
0
SEQEND
0
POLYLINE
8
0
62
252
66
1
40
1
41
1
0
VERTEX
8
0
10
8693
20
2039
0
VERTEX
8
0
10
8693
20
2079
0
VERTEX
8
0
10
8673
20
2079
0
VERTEX
8
0
10
8673
20
2039
0
VERTEX
8
0
10
8693
20
2039
0
SEQEND
0
POLYLINE
8
0
62
252
66
1
40
1
41
1
0
VERTEX
8
0
10
8693
20
2039
0
VERTEX
8
0
10
8673
20
2039
0
VERTEX
8
0
10
8673
20
1999
0
VERTEX
8
0
10
8693
20
1999
0
VERTEX
8
0
10
8693
20
2039
0
SEQEND
0
POLYLINE
8
0
62
252
66
1
40
1
41
1
0
VERTEX
8
0
10
8673
20
1979
0
VERTEX
8
0
10
8673
20
1959
0
VERTEX
8
0
10
8693
20
1959
0
VERTEX
8
0
10
8693
20
1999
0
VERTEX
8
0
10
8673
20
1999
0
VERTEX
8
0
10
8673
20
1979
0
SEQEND
0
POLYLINE
8
0
62
252
66
1
40
1
41
1
0
VERTEX
8
0
10
8693
20
1959
0
VERTEX
8
0
10
8673
20
1959
0
VERTEX
8
0
10
8673
20
1939
0
VERTEX
8
0
10
8673
20
1919
0
VERTEX
8
0
10
8693
20
1919
0
VERTEX
8
0
10
8693
20
1959
0
SEQEND
0
POLYLINE
8
0
62
252
66
1
40
1
41
1
0
VERTEX
8
0
10
8693
20
1919
0
VERTEX
8
0
10
8673
20
1919
0
VERTEX
8
0
10
8673
20
1879
0
VERTEX
8
0
10
8693
20
1879
0
VERTEX
8
0
10
8693
20
1919
0
SEQEND
0
POLYLINE
8
0
62
254
66
1
40
1
41
1
0
VERTEX
8
0
10
8673
20
1919
0
VERTEX
8
0
10
8673
20
1939
0
VERTEX
8
0
10
8433
20
1939
0
VERTEX
8
0
10
8433
20
1919
0
VERTEX
8
0
10
8673
20
1919
0
SEQEND
0
POLYLINE
8
0
62
252
66
1
40
1
41
1
0
VERTEX
8
0
10
8693
20
1839
0
VERTEX
8
0
10
8693
20
1879
0
VERTEX
8
0
10
8673
20
1879
0
VERTEX
8
0
10
8673
20
1859
0
VERTEX
8
0
10
8673
20
1839
0
VERTEX
8
0
10
8693
20
1839
0
SEQEND
0
POLYLINE
8
0
62
252
66
1
40
1
41
1
0
VERTEX
8
0
10
8693
20
1839
0
VERTEX
8
0
10
8673
20
1839
0
VERTEX
8
0
10
8673
20
1819
0
VERTEX
8
0
10
8673
20
1779
0
VERTEX
8
0
10
8693
20
1779
0
VERTEX
8
0
10
8693
20
1839
0
SEQEND
0
POLYLINE
8
0
62
254
66
1
40
1
41
1
0
VERTEX
8
0
10
8673
20
1839
0
VERTEX
8
0
10
8673
20
1859
0
VERTEX
8
0
10
8433
20
1859
0
VERTEX
8
0
10
8433
20
1819
0
VERTEX
8
0
10
8673
20
1819
0
VERTEX
8
0
10
8673
20
1839
0
SEQEND
0
POLYLINE
8
0
62
254
66
1
40
1
41
1
0
VERTEX
8
0
10
8673
20
1859
0
VERTEX
8
0
10
8673
20
1879
0
VERTEX
8
0
10
8433
20
1879
0
VERTEX
8
0
10
8433
20
1859
0
VERTEX
8
0
10
8673
20
1859
0
SEQEND
0
POLYLINE
8
0
62
254
66
1
40
1
41
1
0
VERTEX
8
0
10
8673
20
1879
0
VERTEX
8
0
10
8673
20
1919
0
VERTEX
8
0
10
8433
20
1919
0
VERTEX
8
0
10
8433
20
1899
0
VERTEX
8
0
10
8433
20
1879
0
VERTEX
8
0
10
8673
20
1879
0
SEQEND
0
POLYLINE
8
0
62
254
66
1
40
1
41
1
0
VERTEX
8
0
10
8673
20
1779
0
VERTEX
8
0
10
8673
20
1819
0
VERTEX
8
0
10
8433
20
1819
0
VERTEX
8
0
10
8433
20
1779
0
VERTEX
8
0
10
8673
20
1779
0
SEQEND
0
POLYLINE
8
0
62
251
66
1
40
1
41
1
0
VERTEX
8
0
10
8693
20
1779
0
VERTEX
8
0
10
8673
20
1779
0
VERTEX
8
0
10
8673
20
1739
0
VERTEX
8
0
10
8673
20
1719
0
VERTEX
8
0
10
8693
20
1719
0
VERTEX
8
0
10
8693
20
1779
0
SEQEND
0
POLYLINE
8
0
62
251
66
1
40
1
41
1
0
VERTEX
8
0
10
8693
20
1719
0
VERTEX
8
0
10
8673
20
1719
0
VERTEX
8
0
10
8673
20
1539
0
VERTEX
8
0
10
8693
20
1539
0
VERTEX
8
0
10
8693
20
1719
0
SEQEND
0
POLYLINE
8
0
62
254
66
1
40
1
41
1
0
VERTEX
8
0
10
8673
20
1719
0
VERTEX
8
0
10
8673
20
1739
0
VERTEX
8
0
10
8433
20
1739
0
VERTEX
8
0
10
8433
20
1699
0
VERTEX
8
0
10
8433
20
1519
0
VERTEX
8
0
10
8673
20
1519
0
VERTEX
8
0
10
8673
20
1539
0
VERTEX
8
0
10
8673
20
1719
0
SEQEND
0
POLYLINE
8
0
62
254
66
1
40
1
41
1
0
VERTEX
8
0
10
8673
20
1739
0
VERTEX
8
0
10
8673
20
1779
0
VERTEX
8
0
10
8433
20
1779
0
VERTEX
8
0
10
8433
20
1739
0
VERTEX
8
0
10
8673
20
1739
0
SEQEND
0
POLYLINE
8
0
62
251
66
1
40
1
41
1
0
VERTEX
8
0
10
8693
20
1539
0
VERTEX
8
0
10
8673
20
1539
0
VERTEX
8
0
10
8673
20
1519
0
VERTEX
8
0
10
8673
20
1500
0
VERTEX
8
0
10
8673
20
1480
0
VERTEX
8
0
10
8693
20
1480
0
VERTEX
8
0
10
8693
20
1539
0
SEQEND
0
POLYLINE
8
0
62
252
66
1
40
1
41
1
0
VERTEX
8
0
10
8693
20
1480
0
VERTEX
8
0
10
8673
20
1480
0
VERTEX
8
0
10
8673
20
1460
0
VERTEX
8
0
10
8673
20
1440
0
VERTEX
8
0
10
8693
20
1440
0
VERTEX
8
0
10
8693
20
1480
0
SEQEND
0
POLYLINE
8
0
62
254
66
1
40
1
41
1
0
VERTEX
8
0
10
8673
20
1480
0
VERTEX
8
0
10
8673
20
1500
0
VERTEX
8
0
10
8433
20
1500
0
VERTEX
8
0
10
8433
20
1460
0
VERTEX
8
0
10
8673
20
1460
0
VERTEX
8
0
10
8673
20
1480
0
SEQEND
0
POLYLINE
8
0
62
254
66
1
40
1
41
1
0
VERTEX
8
0
10
8673
20
1500
0
VERTEX
8
0
10
8673
20
1519
0
VERTEX
8
0
10
8433
20
1519
0
VERTEX
8
0
10
8433
20
1500
0
VERTEX
8
0
10
8673
20
1500
0
SEQEND
0
POLYLINE
8
0
62
250
66
1
40
1
41
1
0
VERTEX
8
0
10
8433
20
1899
0
VERTEX
8
0
10
8413
20
1899
0
VERTEX
8
0
10
8413
20
1819
0
VERTEX
8
0
10
8433
20
1819
0
VERTEX
8
0
10
8433
20
1859
0
VERTEX
8
0
10
8433
20
1879
0
VERTEX
8
0
10
8433
20
1899
0
SEQEND
0
POLYLINE
8
0
62
250
66
1
40
1
41
1
0
VERTEX
8
0
10
8433
20
1779
0
VERTEX
8
0
10
8433
20
1819
0
VERTEX
8
0
10
8413
20
1819
0
VERTEX
8
0
10
8413
20
1699
0
VERTEX
8
0
10
8433
20
1699
0
VERTEX
8
0
10
8433
20
1739
0
VERTEX
8
0
10
8433
20
1779
0
SEQEND
0
POLYLINE
8
0
62
250
66
1
40
1
41
1
0
VERTEX
8
0
10
8433
20
1699
0
VERTEX
8
0
10
8413
20
1699
0
VERTEX
8
0
10
8413
20
1519
0
VERTEX
8
0
10
8433
20
1519
0
VERTEX
8
0
10
8433
20
1699
0
SEQEND
0
POLYLINE
8
0
62
250
66
1
40
1
41
1
0
VERTEX
8
0
10
8433
20
1500
0
VERTEX
8
0
10
8433
20
1519
0
VERTEX
8
0
10
8413
20
1519
0
VERTEX
8
0
10
8413
20
1440
0
VERTEX
8
0
10
8433
20
1440
0
VERTEX
8
0
10
8433
20
1460
0
VERTEX
8
0
10
8433
20
1500
0
SEQEND
0
POLYLINE
8
0
62
254
66
1
40
1
41
1
0
VERTEX
8
0
10
8433
20
1440
0
VERTEX
8
0
10
8433
20
1420
0
VERTEX
8
0
10
8673
20
1420
0
VERTEX
8
0
10
8673
20
1440
0
VERTEX
8
0
10
8433
20
1440
0
SEQEND
0
POLYLINE
8
0
62
27
66
1
40
1
41
1
0
VERTEX
8
0
10
8433
20
1420
0
VERTEX
8
0
10
8433
20
1440
0
VERTEX
8
0
10
8413
20
1440
0
VERTEX
8
0
10
8413
20
1400
0
VERTEX
8
0
10
8433
20
1400
0
VERTEX
8
0
10
8433
20
1420
0
SEQEND
0
POLYLINE
8
0
62
254
66
1
40
1
41
1
0
VERTEX
8
0
10
8433
20
1460
0
VERTEX
8
0
10
8433
20
1440
0
VERTEX
8
0
10
8673
20
1440
0
VERTEX
8
0
10
8673
20
1460
0
VERTEX
8
0
10
8433
20
1460
0
SEQEND
0
POLYLINE
8
0
62
254
66
1
40
1
41
1
0
VERTEX
8
0
10
8433
20
1400
0
VERTEX
8
0
10
8433
20
1380
0
VERTEX
8
0
10
8673
20
1380
0
VERTEX
8
0
10
8673
20
1400
0
VERTEX
8
0
10
8433
20
1400
0
SEQEND
0
POLYLINE
8
0
62
37
66
1
40
1
41
1
0
VERTEX
8
0
10
8433
20
1380
0
VERTEX
8
0
10
8433
20
1400
0
VERTEX
8
0
10
8413
20
1400
0
VERTEX
8
0
10
8413
20
1340
0
VERTEX
8
0
10
8433
20
1340
0
VERTEX
8
0
10
8433
20
1360
0
VERTEX
8
0
10
8433
20
1380
0
SEQEND
0
POLYLINE
8
0
62
254
66
1
40
1
41
1
0
VERTEX
8
0
10
8433
20
1360
0
VERTEX
8
0
10
8433
20
1340
0
VERTEX
8
0
10
8673
20
1340
0
VERTEX
8
0
10
8673
20
1360
0
VERTEX
8
0
10
8433
20
1360
0
SEQEND
0
POLYLINE
8
0
62
37
66
1
40
1
41
1
0
VERTEX
8
0
10
8433
20
1340
0
VERTEX
8
0
10
8413
20
1340
0
VERTEX
8
0
10
8413
20
1300
0
VERTEX
8
0
10
8433
20
1300
0
VERTEX
8
0
10
8433
20
1320
0
VERTEX
8
0
10
8433
20
1340
0
SEQEND
0
POLYLINE
8
0
62
254
66
1
40
1
41
1
0
VERTEX
8
0
10
8433
20
1380
0
VERTEX
8
0
10
8433
20
1360
0
VERTEX
8
0
10
8673
20
1360
0
VERTEX
8
0
10
8673
20
1380
0
VERTEX
8
0
10
8433
20
1380
0
SEQEND
0
POLYLINE
8
0
62
254
66
1
40
1
41
1
0
VERTEX
8
0
10
8433
20
1420
0
VERTEX
8
0
10
8433
20
1400
0
VERTEX
8
0
10
8673
20
1400
0
VERTEX
8
0
10
8673
20
1420
0
VERTEX
8
0
10
8433
20
1420
0
SEQEND
0
POLYLINE
8
0
62
254
66
1
40
1
41
1
0
VERTEX
8
0
10
8433
20
1300
0
VERTEX
8
0
10
8433
20
1280
0
VERTEX
8
0
10
8673
20
1280
0
VERTEX
8
0
10
8673
20
1300
0
VERTEX
8
0
10
8433
20
1300
0
SEQEND
0
POLYLINE
8
0
62
37
66
1
40
1
41
1
0
VERTEX
8
0
10
8433
20
1280
0
VERTEX
8
0
10
8433
20
1300
0
VERTEX
8
0
10
8413
20
1300
0
VERTEX
8
0
10
8413
20
1240
0
VERTEX
8
0
10
8433
20
1240
0
VERTEX
8
0
10
8433
20
1260
0
VERTEX
8
0
10
8433
20
1280
0
SEQEND
0
POLYLINE
8
0
62
254
66
1
40
1
41
1
0
VERTEX
8
0
10
8433
20
1320
0
VERTEX
8
0
10
8433
20
1300
0
VERTEX
8
0
10
8673
20
1300
0
VERTEX
8
0
10
8673
20
1320
0
VERTEX
8
0
10
8433
20
1320
0
SEQEND
0
POLYLINE
8
0
62
254
66
1
40
1
41
1
0
VERTEX
8
0
10
8433
20
1240
0
VERTEX
8
0
10
8433
20
1220
0
VERTEX
8
0
10
8673
20
1220
0
VERTEX
8
0
10
8673
20
1240
0
VERTEX
8
0
10
8433
20
1240
0
SEQEND
0
POLYLINE
8
0
62
37
66
1
40
1
41
1
0
VERTEX
8
0
10
8433
20
1220
0
VERTEX
8
0
10
8433
20
1240
0
VERTEX
8
0
10
8413
20
1240
0
VERTEX
8
0
10
8413
20
1160
0
VERTEX
8
0
10
8433
20
1160
0
VERTEX
8
0
10
8433
20
1180
0
VERTEX
8
0
10
8433
20
1200
0
VERTEX
8
0
10
8433
20
1220
0
SEQEND
0
POLYLINE
8
0
62
254
66
1
40
1
41
1
0
VERTEX
8
0
10
8433
20
1260
0
VERTEX
8
0
10
8433
20
1240
0
VERTEX
8
0
10
8673
20
1240
0
VERTEX
8
0
10
8673
20
1260
0
VERTEX
8
0
10
8433
20
1260
0
SEQEND
0
POLYLINE
8
0
62
254
66
1
40
1
41
1
0
VERTEX
8
0
10
8433
20
1280
0
VERTEX
8
0
10
8433
20
1260
0
VERTEX
8
0
10
8673
20
1260
0
VERTEX
8
0
10
8673
20
1280
0
VERTEX
8
0
10
8433
20
1280
0
SEQEND
0
POLYLINE
8
0
62
254
66
1
40
1
41
1
0
VERTEX
8
0
10
8433
20
1340
0
VERTEX
8
0
10
8433
20
1320
0
VERTEX
8
0
10
8673
20
1320
0
VERTEX
8
0
10
8673
20
1340
0
VERTEX
8
0
10
8433
20
1340
0
SEQEND
0
POLYLINE
8
0
62
255
66
1
40
1
41
1
0
VERTEX
8
0
10
8433
20
1180
0
VERTEX
8
0
10
8433
20
1160
0
VERTEX
8
0
10
8673
20
1160
0
VERTEX
8
0
10
8673
20
1180
0
VERTEX
8
0
10
8433
20
1180
0
SEQEND
0
POLYLINE
8
0
62
255
66
1
40
1
41
1
0
VERTEX
8
0
10
8433
20
1200
0
VERTEX
8
0
10
8433
20
1180
0
VERTEX
8
0
10
8673
20
1180
0
VERTEX
8
0
10
8673
20
1200
0
VERTEX
8
0
10
8433
20
1200
0
SEQEND
0
POLYLINE
8
0
62
37
66
1
40
1
41
1
0
VERTEX
8
0
10
8433
20
1160
0
VERTEX
8
0
10
8413
20
1160
0
VERTEX
8
0
10
8413
20
740
0
VERTEX
8
0
10
8433
20
740
0
VERTEX
8
0
10
8433
20
1120
0
VERTEX
8
0
10
8433
20
1160
0
SEQEND
0
POLYLINE
8
0
62
255
66
1
40
1
41
1
0
VERTEX
8
0
10
8433
20
1160
0
VERTEX
8
0
10
8433
20
1120
0
VERTEX
8
0
10
8673
20
1120
0
VERTEX
8
0
10
8673
20
1140
0
VERTEX
8
0
10
8673
20
1160
0
VERTEX
8
0
10
8433
20
1160
0
SEQEND
0
POLYLINE
8
0
62
255
66
1
40
1
41
1
0
VERTEX
8
0
10
8433
20
1220
0
VERTEX
8
0
10
8433
20
1200
0
VERTEX
8
0
10
8673
20
1200
0
VERTEX
8
0
10
8673
20
1220
0
VERTEX
8
0
10
8433
20
1220
0
SEQEND
0
POLYLINE
8
0
62
8
66
1
40
1
41
1
0
VERTEX
8
0
10
8673
20
1440
0
VERTEX
8
0
10
8673
20
1420
0
VERTEX
8
0
10
8673
20
1400
0
VERTEX
8
0
10
8673
20
1380
0
VERTEX
8
0
10
8693
20
1380
0
VERTEX
8
0
10
8693
20
1440
0
VERTEX
8
0
10
8673
20
1440
0
SEQEND
0
POLYLINE
8
0
62
8
66
1
40
1
41
1
0
VERTEX
8
0
10
8693
20
1340
0
VERTEX
8
0
10
8693
20
1380
0
VERTEX
8
0
10
8673
20
1380
0
VERTEX
8
0
10
8673
20
1360
0
VERTEX
8
0
10
8673
20
1340
0
VERTEX
8
0
10
8693
20
1340
0
SEQEND
0
POLYLINE
8
0
62
8
66
1
40
1
41
1
0
VERTEX
8
0
10
8693
20
1340
0
VERTEX
8
0
10
8673
20
1340
0
VERTEX
8
0
10
8673
20
1320
0
VERTEX
8
0
10
8673
20
1300
0
VERTEX
8
0
10
8693
20
1300
0
VERTEX
8
0
10
8693
20
1340
0
SEQEND
0
POLYLINE
8
0
62
251
66
1
40
1
41
1
0
VERTEX
8
0
10
8673
20
1300
0
VERTEX
8
0
10
8673
20
1280
0
VERTEX
8
0
10
8673
20
1260
0
VERTEX
8
0
10
8693
20
1260
0
VERTEX
8
0
10
8693
20
1300
0
VERTEX
8
0
10
8673
20
1300
0
SEQEND
0
POLYLINE
8
0
62
251
66
1
40
1
41
1
0
VERTEX
8
0
10
8693
20
1220
0
VERTEX
8
0
10
8693
20
1260
0
VERTEX
8
0
10
8673
20
1260
0
VERTEX
8
0
10
8673
20
1240
0
VERTEX
8
0
10
8673
20
1220
0
VERTEX
8
0
10
8693
20
1220
0
SEQEND
0
POLYLINE
8
0
62
251
66
1
40
1
41
1
0
VERTEX
8
0
10
8693
20
1220
0
VERTEX
8
0
10
8673
20
1220
0
VERTEX
8
0
10
8673
20
1200
0
VERTEX
8
0
10
8673
20
1180
0
VERTEX
8
0
10
8693
20
1180
0
VERTEX
8
0
10
8693
20
1220
0
SEQEND
0
POLYLINE
8
0
62
251
66
1
40
1
41
1
0
VERTEX
8
0
10
8673
20
1180
0
VERTEX
8
0
10
8673
20
1160
0
VERTEX
8
0
10
8673
20
1140
0
VERTEX
8
0
10
8693
20
1140
0
VERTEX
8
0
10
8693
20
1180
0
VERTEX
8
0
10
8673
20
1180
0
SEQEND
0
POLYLINE
8
0
62
251
66
1
40
1
41
1
0
VERTEX
8
0
10
8673
20
1140
0
VERTEX
8
0
10
8673
20
1120
0
VERTEX
8
0
10
8673
20
740
0
VERTEX
8
0
10
8693
20
740
0
VERTEX
8
0
10
8693
20
1140
0
VERTEX
8
0
10
8673
20
1140
0
SEQEND
0
POLYLINE
8
0
62
255
66
1
40
1
41
1
0
VERTEX
8
0
10
8673
20
1120
0
VERTEX
8
0
10
8433
20
1120
0
VERTEX
8
0
10
8433
20
740
0
VERTEX
8
0
10
8673
20
740
0
VERTEX
8
0
10
8673
20
1120
0
SEQEND
0
POLYLINE
8
0
62
7
66
1
40
1
41
1
0
VERTEX
8
0
10
4574
20
2859
0
VERTEX
8
0
10
4574
20
2899
0
VERTEX
8
0
10
4554
20
2899
0
VERTEX
8
0
10
4554
20
2919
0
VERTEX
8
0
10
4534
20
2919
0
VERTEX
8
0
10
4534
20
2899
0
VERTEX
8
0
10
4474
20
2899
0
VERTEX
8
0
10
4474
20
2859
0
VERTEX
8
0
10
4494
20
2859
0
VERTEX
8
0
10
4494
20
2879
0
VERTEX
8
0
10
4554
20
2879
0
VERTEX
8
0
10
4554
20
2859
0
VERTEX
8
0
10
4574
20
2859
0
SEQEND
0
POLYLINE
8
0
62
7
66
1
40
1
41
1
0
VERTEX
8
0
10
4574
20
2839
0
VERTEX
8
0
10
4574
20
2859
0
VERTEX
8
0
10
4554
20
2859
0
VERTEX
8
0
10
4494
20
2859
0
VERTEX
8
0
10
4494
20
2839
0
VERTEX
8
0
10
4574
20
2839
0
SEQEND
0
POLYLINE
8
0
62
7
66
1
40
1
41
1
0
VERTEX
8
0
10
4494
20
2839
0
VERTEX
8
0
10
4494
20
2859
0
VERTEX
8
0
10
4474
20
2859
0
VERTEX
8
0
10
4474
20
2779
0
VERTEX
8
0
10
4494
20
2779
0
VERTEX
8
0
10
4494
20
2799
0
VERTEX
8
0
10
4494
20
2819
0
VERTEX
8
0
10
4494
20
2839
0
SEQEND
0
POLYLINE
8
0
62
7
66
1
40
1
41
1
0
VERTEX
8
0
10
4494
20
2879
0
VERTEX
8
0
10
4494
20
2859
0
VERTEX
8
0
10
4554
20
2859
0
VERTEX
8
0
10
4554
20
2879
0
VERTEX
8
0
10
4494
20
2879
0
SEQEND
0
POLYLINE
8
0
62
28
66
1
40
1
41
1
0
VERTEX
8
0
10
4514
20
2779
0
VERTEX
8
0
10
4554
20
2779
0
VERTEX
8
0
10
4554
20
2799
0
VERTEX
8
0
10
4494
20
2799
0
VERTEX
8
0
10
4494
20
2779
0
VERTEX
8
0
10
4494
20
2739
0
VERTEX
8
0
10
4494
20
2719
0
VERTEX
8
0
10
4514
20
2719
0
VERTEX
8
0
10
4514
20
2759
0
VERTEX
8
0
10
4514
20
2779
0
SEQEND
0
POLYLINE
8
0
62
19
66
1
40
1
41
1
0
VERTEX
8
0
10
4554
20
2779
0
VERTEX
8
0
10
4514
20
2779
0
VERTEX
8
0
10
4514
20
2759
0
VERTEX
8
0
10
4534
20
2759
0
VERTEX
8
0
10
4534
20
2739
0
VERTEX
8
0
10
4554
20
2739
0
VERTEX
8
0
10
4554
20
2759
0
VERTEX
8
0
10
4594
20
2759
0
VERTEX
8
0
10
4594
20
2779
0
VERTEX
8
0
10
4574
20
2779
0
VERTEX
8
0
10
4574
20
2799
0
VERTEX
8
0
10
4554
20
2799
0
VERTEX
8
0
10
4554
20
2779
0
SEQEND
0
POLYLINE
8
0
62
28
66
1
40
1
41
1
0
VERTEX
8
0
10
4494
20
2819
0
VERTEX
8
0
10
4494
20
2799
0
VERTEX
8
0
10
4554
20
2799
0
VERTEX
8
0
10
4574
20
2799
0
VERTEX
8
0
10
4574
20
2819
0
VERTEX
8
0
10
4494
20
2819
0
SEQEND
0
POLYLINE
8
0
62
7
66
1
40
1
41
1
0
VERTEX
8
0
10
4494
20
2779
0
VERTEX
8
0
10
4474
20
2779
0
VERTEX
8
0
10
4474
20
2739
0
VERTEX
8
0
10
4494
20
2739
0
VERTEX
8
0
10
4494
20
2779
0
SEQEND
0
POLYLINE
8
0
62
19
66
1
40
1
41
1
0
VERTEX
8
0
10
4534
20
2739
0
VERTEX
8
0
10
4534
20
2719
0
VERTEX
8
0
10
4574
20
2719
0
VERTEX
8
0
10
4594
20
2719
0
VERTEX
8
0
10
4594
20
2739
0
VERTEX
8
0
10
4594
20
2759
0
VERTEX
8
0
10
4554
20
2759
0
VERTEX
8
0
10
4554
20
2739
0
VERTEX
8
0
10
4534
20
2739
0
SEQEND
0
POLYLINE
8
0
62
19
66
1
40
1
41
1
0
VERTEX
8
0
10
4534
20
2719
0
VERTEX
8
0
10
4534
20
2739
0
VERTEX
8
0
10
4534
20
2759
0
VERTEX
8
0
10
4514
20
2759
0
VERTEX
8
0
10
4514
20
2719
0
VERTEX
8
0
10
4514
20
2679
0
VERTEX
8
0
10
4534
20
2679
0
VERTEX
8
0
10
4534
20
2699
0
VERTEX
8
0
10
4534
20
2719
0
SEQEND
0
POLYLINE
8
0
62
7
66
1
40
1
41
1
0
VERTEX
8
0
10
4514
20
2719
0
VERTEX
8
0
10
4494
20
2719
0
VERTEX
8
0
10
4494
20
2659
0
VERTEX
8
0
10
4514
20
2659
0
VERTEX
8
0
10
4514
20
2679
0
VERTEX
8
0
10
4514
20
2719
0
SEQEND
0
POLYLINE
8
0
62
28
66
1
40
1
41
1
0
VERTEX
8
0
10
4594
20
2779
0
VERTEX
8
0
10
4594
20
2819
0
VERTEX
8
0
10
4574
20
2819
0
VERTEX
8
0
10
4574
20
2799
0
VERTEX
8
0
10
4574
20
2779
0
VERTEX
8
0
10
4594
20
2779
0
SEQEND
0
POLYLINE
8
0
62
19
66
1
40
1
41
1
0
VERTEX
8
0
10
4594
20
2739
0
VERTEX
8
0
10
4594
20
2719
0
VERTEX
8
0
10
4594
20
2699
0
VERTEX
8
0
10
4614
20
2699
0
VERTEX
8
0
10
4614
20
2739
0
VERTEX
8
0
10
4594
20
2739
0
SEQEND
0
POLYLINE
8
0
62
7
66
1
40
1
41
1
0
VERTEX
8
0
10
4594
20
2759
0
VERTEX
8
0
10
4594
20
2739
0
VERTEX
8
0
10
4614
20
2739
0
VERTEX
8
0
10
4614
20
2779
0
VERTEX
8
0
10
4594
20
2779
0
VERTEX
8
0
10
4594
20
2759
0
SEQEND
0
POLYLINE
8
0
62
17
66
1
40
1
41
1
0
VERTEX
8
0
10
4594
20
2719
0
VERTEX
8
0
10
4574
20
2719
0
VERTEX
8
0
10
4574
20
2699
0
VERTEX
8
0
10
4574
20
2679
0
VERTEX
8
0
10
4554
20
2679
0
VERTEX
8
0
10
4554
20
2659
0
VERTEX
8
0
10
4594
20
2659
0
VERTEX
8
0
10
4614
20
2659
0
VERTEX
8
0
10
4614
20
2699
0
VERTEX
8
0
10
4594
20
2699
0
VERTEX
8
0
10
4594
20
2719
0
SEQEND
0
POLYLINE
8
0
62
19
66
1
40
1
41
1
0
VERTEX
8
0
10
4574
20
2719
0
VERTEX
8
0
10
4534
20
2719
0
VERTEX
8
0
10
4534
20
2699
0
VERTEX
8
0
10
4574
20
2699
0
VERTEX
8
0
10
4574
20
2719
0
SEQEND
0
POLYLINE
8
0
62
28
66
1
40
1
41
1
0
VERTEX
8
0
10
4494
20
2819
0
VERTEX
8
0
10
4574
20
2819
0
VERTEX
8
0
10
4574
20
2839
0
VERTEX
8
0
10
4494
20
2839
0
VERTEX
8
0
10
4494
20
2819
0
SEQEND
0
POLYLINE
8
0
62
7
66
1
40
1
41
1
0
VERTEX
8
0
10
4654
20
2659
0
VERTEX
8
0
10
4634
20
2659
0
VERTEX
8
0
10
4634
20
2619
0
VERTEX
8
0
10
4654
20
2619
0
VERTEX
8
0
10
4654
20
2659
0
SEQEND
0
POLYLINE
8
0
62
28
66
1
40
1
41
1
0
VERTEX
8
0
10
4614
20
2699
0
VERTEX
8
0
10
4614
20
2659
0
VERTEX
8
0
10
4634
20
2659
0
VERTEX
8
0
10
4634
20
2699
0
VERTEX
8
0
10
4614
20
2699
0
SEQEND
0
POLYLINE
8
0
62
29
66
1
40
1
41
1
0
VERTEX
8
0
10
4634
20
2659
0
VERTEX
8
0
10
4614
20
2659
0
VERTEX
8
0
10
4614
20
2619
0
VERTEX
8
0
10
4634
20
2619
0
VERTEX
8
0
10
4634
20
2659
0
SEQEND
0
POLYLINE
8
0
62
17
66
1
40
1
41
1
0
VERTEX
8
0
10
4594
20
2659
0
VERTEX
8
0
10
4594
20
2639
0
VERTEX
8
0
10
4594
20
2619
0
VERTEX
8
0
10
4594
20
2599
0
VERTEX
8
0
10
4634
20
2599
0
VERTEX
8
0
10
4634
20
2619
0
VERTEX
8
0
10
4614
20
2619
0
VERTEX
8
0
10
4614
20
2659
0
VERTEX
8
0
10
4594
20
2659
0
SEQEND
0
POLYLINE
8
0
62
17
66
1
40
1
41
1
0
VERTEX
8
0
10
4594
20
2639
0
VERTEX
8
0
10
4594
20
2659
0
VERTEX
8
0
10
4554
20
2659
0
VERTEX
8
0
10
4554
20
2679
0
VERTEX
8
0
10
4534
20
2679
0
VERTEX
8
0
10
4534
20
2639
0
VERTEX
8
0
10
4534
20
2599
0
VERTEX
8
0
10
4554
20
2599
0
VERTEX
8
0
10
4554
20
2619
0
VERTEX
8
0
10
4554
20
2639
0
VERTEX
8
0
10
4594
20
2639
0
SEQEND
0
POLYLINE
8
0
62
17
66
1
40
1
41
1
0
VERTEX
8
0
10
4574
20
2679
0
VERTEX
8
0
10
4574
20
2699
0
VERTEX
8
0
10
4534
20
2699
0
VERTEX
8
0
10
4534
20
2679
0
VERTEX
8
0
10
4554
20
2679
0
VERTEX
8
0
10
4574
20
2679
0
SEQEND
0
POLYLINE
8
0
62
17
66
1
40
1
41
1
0
VERTEX
8
0
10
4574
20
2619
0
VERTEX
8
0
10
4574
20
2579
0
VERTEX
8
0
10
4594
20
2579
0
VERTEX
8
0
10
4594
20
2599
0
VERTEX
8
0
10
4594
20
2619
0
VERTEX
8
0
10
4574
20
2619
0
SEQEND
0
POLYLINE
8
0
62
17
66
1
40
1
41
1
0
VERTEX
8
0
10
4574
20
2579
0
VERTEX
8
0
10
4574
20
2619
0
VERTEX
8
0
10
4554
20
2619
0
VERTEX
8
0
10
4554
20
2599
0
VERTEX
8
0
10
4554
20
2559
0
VERTEX
8
0
10
4554
20
2519
0
VERTEX
8
0
10
4574
20
2519
0
VERTEX
8
0
10
4574
20
2539
0
VERTEX
8
0
10
4574
20
2559
0
VERTEX
8
0
10
4614
20
2559
0
VERTEX
8
0
10
4614
20
2579
0
VERTEX
8
0
10
4594
20
2579
0
VERTEX
8
0
10
4574
20
2579
0
SEQEND
0
POLYLINE
8
0
62
17
66
1
40
1
41
1
0
VERTEX
8
0
10
4594
20
2599
0
VERTEX
8
0
10
4594
20
2579
0
VERTEX
8
0
10
4614
20
2579
0
VERTEX
8
0
10
4634
20
2579
0
VERTEX
8
0
10
4634
20
2599
0
VERTEX
8
0
10
4594
20
2599
0
SEQEND
0
POLYLINE
8
0
62
17
66
1
40
1
41
1
0
VERTEX
8
0
10
4574
20
2619
0
VERTEX
8
0
10
4594
20
2619
0
VERTEX
8
0
10
4594
20
2639
0
VERTEX
8
0
10
4554
20
2639
0
VERTEX
8
0
10
4554
20
2619
0
VERTEX
8
0
10
4574
20
2619
0
SEQEND
0
POLYLINE
8
0
62
19
66
1
40
1
41
1
0
VERTEX
8
0
10
4654
20
2619
0
VERTEX
8
0
10
4634
20
2619
0
VERTEX
8
0
10
4634
20
2599
0
VERTEX
8
0
10
4634
20
2579
0
VERTEX
8
0
10
4654
20
2579
0
VERTEX
8
0
10
4654
20
2619
0
SEQEND
0
POLYLINE
8
0
62
17
66
1
40
1
41
1
0
VERTEX
8
0
10
4654
20
2579
0
VERTEX
8
0
10
4634
20
2579
0
VERTEX
8
0
10
4634
20
2539
0
VERTEX
8
0
10
4654
20
2539
0
VERTEX
8
0
10
4654
20
2559
0
VERTEX
8
0
10
4654
20
2579
0
SEQEND
0
POLYLINE
8
0
62
15
66
1
40
1
41
1
0
VERTEX
8
0
10
4634
20
2579
0
VERTEX
8
0
10
4614
20
2579
0
VERTEX
8
0
10
4614
20
2559
0
VERTEX
8
0
10
4614
20
2519
0
VERTEX
8
0
10
4594
20
2519
0
VERTEX
8
0
10
4594
20
2499
0
VERTEX
8
0
10
4634
20
2499
0
VERTEX
8
0
10
4634
20
2519
0
VERTEX
8
0
10
4654
20
2519
0
VERTEX
8
0
10
4654
20
2539
0
VERTEX
8
0
10
4634
20
2539
0
VERTEX
8
0
10
4634
20
2579
0
SEQEND
0
POLYLINE
8
0
62
19
66
1
40
1
41
1
0
VERTEX
8
0
10
4514
20
2659
0
VERTEX
8
0
10
4514
20
2639
0
VERTEX
8
0
10
4534
20
2639
0
VERTEX
8
0
10
4534
20
2679
0
VERTEX
8
0
10
4514
20
2679
0
VERTEX
8
0
10
4514
20
2659
0
SEQEND
0
POLYLINE
8
0
62
28
66
1
40
1
41
1
0
VERTEX
8
0
10
4534
20
2639
0
VERTEX
8
0
10
4514
20
2639
0
VERTEX
8
0
10
4514
20
2599
0
VERTEX
8
0
10
4534
20
2599
0
VERTEX
8
0
10
4534
20
2639
0
SEQEND
0
POLYLINE
8
0
62
19
66
1
40
1
41
1
0
VERTEX
8
0
10
4554
20
2599
0
VERTEX
8
0
10
4534
20
2599
0
VERTEX
8
0
10
4534
20
2559
0
VERTEX
8
0
10
4554
20
2559
0
VERTEX
8
0
10
4554
20
2599
0
SEQEND
0
POLYLINE
8
0
62
28
66
1
40
1
41
1
0
VERTEX
8
0
10
4554
20
2519
0
VERTEX
8
0
10
4554
20
2559
0
VERTEX
8
0
10
4534
20
2559
0
VERTEX
8
0
10
4534
20
2519
0
VERTEX
8
0
10
4554
20
2519
0
SEQEND
0
POLYLINE
8
0
62
17
66
1
40
1
41
1
0
VERTEX
8
0
10
4554
20
2519
0
VERTEX
8
0
10
4554
20
2479
0
VERTEX
8
0
10
4574
20
2479
0
VERTEX
8
0
10
4574
20
2519
0
VERTEX
8
0
10
4554
20
2519
0
SEQEND
0
POLYLINE
8
0
62
15
66
1
40
1
41
1
0
VERTEX
8
0
10
4614
20
2519
0
VERTEX
8
0
10
4614
20
2559
0
VERTEX
8
0
10
4574
20
2559
0
VERTEX
8
0
10
4574
20
2539
0
VERTEX
8
0
10
4594
20
2539
0
VERTEX
8
0
10
4594
20
2519
0
VERTEX
8
0
10
4614
20
2519
0
SEQEND
0
POLYLINE
8
0
62
19
66
1
40
1
41
1
0
VERTEX
8
0
10
4654
20
2539
0
VERTEX
8
0
10
4654
20
2519
0
VERTEX
8
0
10
4674
20
2519
0
VERTEX
8
0
10
4674
20
2559
0
VERTEX
8
0
10
4654
20
2559
0
VERTEX
8
0
10
4654
20
2539
0
SEQEND
0
POLYLINE
8
0
62
15
66
1
40
1
41
1
0
VERTEX
8
0
10
4654
20
2519
0
VERTEX
8
0
10
4634
20
2519
0
VERTEX
8
0
10
4634
20
2499
0
VERTEX
8
0
10
4634
20
2459
0
VERTEX
8
0
10
4614
20
2459
0
VERTEX
8
0
10
4614
20
2419
0
VERTEX
8
0
10
4654
20
2419
0
VERTEX
8
0
10
4654
20
2439
0
VERTEX
8
0
10
4674
20
2439
0
VERTEX
8
0
10
4674
20
2479
0
VERTEX
8
0
10
4654
20
2479
0
VERTEX
8
0
10
4654
20
2519
0
SEQEND
0
POLYLINE
8
0
62
15
66
1
40
1
41
1
0
VERTEX
8
0
10
4594
20
2539
0
VERTEX
8
0
10
4574
20
2539
0
VERTEX
8
0
10
4574
20
2519
0
VERTEX
8
0
10
4574
20
2479
0
VERTEX
8
0
10
4574
20
2459
0
VERTEX
8
0
10
4594
20
2459
0
VERTEX
8
0
10
4594
20
2479
0
VERTEX
8
0
10
4614
20
2479
0
VERTEX
8
0
10
4614
20
2459
0
VERTEX
8
0
10
4634
20
2459
0
VERTEX
8
0
10
4634
20
2499
0
VERTEX
8
0
10
4594
20
2499
0
VERTEX
8
0
10
4594
20
2519
0
VERTEX
8
0
10
4594
20
2539
0
SEQEND
0
POLYLINE
8
0
62
15
66
1
40
1
41
1
0
VERTEX
8
0
10
4594
20
2479
0
VERTEX
8
0
10
4594
20
2459
0
VERTEX
8
0
10
4594
20
2419
0
VERTEX
8
0
10
4614
20
2419
0
VERTEX
8
0
10
4614
20
2459
0
VERTEX
8
0
10
4614
20
2479
0
VERTEX
8
0
10
4594
20
2479
0
SEQEND
0
POLYLINE
8
0
62
17
66
1
40
1
41
1
0
VERTEX
8
0
10
4594
20
2459
0
VERTEX
8
0
10
4574
20
2459
0
VERTEX
8
0
10
4574
20
2439
0
VERTEX
8
0
10
4574
20
2419
0
VERTEX
8
0
10
4594
20
2419
0
VERTEX
8
0
10
4594
20
2459
0
SEQEND
0
POLYLINE
8
0
62
28
66
1
40
1
41
1
0
VERTEX
8
0
10
4574
20
2459
0
VERTEX
8
0
10
4574
20
2479
0
VERTEX
8
0
10
4554
20
2479
0
VERTEX
8
0
10
4554
20
2439
0
VERTEX
8
0
10
4574
20
2439
0
VERTEX
8
0
10
4574
20
2459
0
SEQEND
0
POLYLINE
8
0
62
17
66
1
40
1
41
1
0
VERTEX
8
0
10
4654
20
2519
0
VERTEX
8
0
10
4654
20
2479
0
VERTEX
8
0
10
4674
20
2479
0
VERTEX
8
0
10
4674
20
2519
0
VERTEX
8
0
10
4654
20
2519
0
SEQEND
0
POLYLINE
8
0
62
19
66
1
40
1
41
1
0
VERTEX
8
0
10
4694
20
2479
0
VERTEX
8
0
10
4674
20
2479
0
VERTEX
8
0
10
4674
20
2439
0
VERTEX
8
0
10
4694
20
2439
0
VERTEX
8
0
10
4694
20
2479
0
SEQEND
0
POLYLINE
8
0
62
19
66
1
40
1
41
1
0
VERTEX
8
0
10
4314
20
1979
0
VERTEX
8
0
10
4294
20
1979
0
VERTEX
8
0
10
4294
20
1939
0
VERTEX
8
0
10
4314
20
1939
0
VERTEX
8
0
10
4314
20
1979
0
SEQEND
0
POLYLINE
8
0
62
13
66
1
40
1
41
1
0
VERTEX
8
0
10
4334
20
1979
0
VERTEX
8
0
10
4314
20
1979
0
VERTEX
8
0
10
4314
20
1939
0
VERTEX
8
0
10
4294
20
1939
0
VERTEX
8
0
10
4294
20
1919
0
VERTEX
8
0
10
4274
20
1919
0
VERTEX
8
0
10
4274
20
1899
0
VERTEX
8
0
10
4254
20
1899
0
VERTEX
8
0
10
4254
20
1859
0
VERTEX
8
0
10
4234
20
1859
0
VERTEX
8
0
10
4234
20
1819
0
VERTEX
8
0
10
4214
20
1819
0
VERTEX
8
0
10
4214
20
1799
0
VERTEX
8
0
10
4194
20
1799
0
VERTEX
8
0
10
4194
20
1759
0
VERTEX
8
0
10
4174
20
1759
0
VERTEX
8
0
10
4174
20
1719
0
VERTEX
8
0
10
4174
20
1679
0
VERTEX
8
0
10
4154
20
1679
0
VERTEX
8
0
10
4154
20
1659
0
VERTEX
8
0
10
4154
20
1619
0
VERTEX
8
0
10
4134
20
1619
0
VERTEX
8
0
10
4134
20
1579
0
VERTEX
8
0
10
4134
20
1519
0
VERTEX
8
0
10
4134
20
1400
0
VERTEX
8
0
10
4134
20
1360
0
VERTEX
8
0
10
4154
20
1360
0
VERTEX
8
0
10
4154
20
1320
0
VERTEX
8
0
10
4134
20
1320
0
VERTEX
8
0
10
4134
20
1300
0
VERTEX
8
0
10
4134
20
1280
0
VERTEX
8
0
10
4154
20
1280
0
VERTEX
8
0
10
4154
20
1260
0
VERTEX
8
0
10
4174
20
1260
0
VERTEX
8
0
10
4174
20
1240
0
VERTEX
8
0
10
4194
20
1240
0
VERTEX
8
0
10
4194
20
1260
0
VERTEX
8
0
10
4194
20
1280
0
VERTEX
8
0
10
4234
20
1280
0
VERTEX
8
0
10
4254
20
1280
0
VERTEX
8
0
10
4254
20
1300
0
VERTEX
8
0
10
4274
20
1300
0
VERTEX
8
0
10
4274
20
1320
0
VERTEX
8
0
10
4254
20
1320
0
VERTEX
8
0
10
4214
20
1320
0
VERTEX
8
0
10
4214
20
1360
0
VERTEX
8
0
10
4214
20
1380
0
VERTEX
8
0
10
4194
20
1380
0
VERTEX
8
0
10
4194
20
1420
0
VERTEX
8
0
10
4214
20
1420
0
VERTEX
8
0
10
4214
20
1480
0
VERTEX
8
0
10
4214
20
1539
0
VERTEX
8
0
10
4214
20
1579
0
VERTEX
8
0
10
4234
20
1579
0
VERTEX
8
0
10
4234
20
1619
0
VERTEX
8
0
10
4234
20
1659
0
VERTEX
8
0
10
4254
20
1659
0
VERTEX
8
0
10
4254
20
1699
0
VERTEX
8
0
10
4254
20
1739
0
VERTEX
8
0
10
4274
20
1739
0
VERTEX
8
0
10
4274
20
1759
0
VERTEX
8
0
10
4294
20
1759
0
VERTEX
8
0
10
4294
20
1779
0
VERTEX
8
0
10
4314
20
1779
0
VERTEX
8
0
10
4314
20
1799
0
VERTEX
8
0
10
4314
20
1839
0
VERTEX
8
0
10
4334
20
1839
0
VERTEX
8
0
10
4354
20
1839
0
VERTEX
8
0
10
4354
20
1859
0
VERTEX
8
0
10
4354
20
1899
0
VERTEX
8
0
10
4374
20
1899
0
VERTEX
8
0
10
4374
20
1919
0
VERTEX
8
0
10
4394
20
1919
0
VERTEX
8
0
10
4394
20
1939
0
VERTEX
8
0
10
4414
20
1939
0
VERTEX
8
0
10
4434
20
1939
0
VERTEX
8
0
10
4434
20
1979
0
VERTEX
8
0
10
4474
20
1979
0
VERTEX
8
0
10
4494
20
1979
0
VERTEX
8
0
10
4494
20
1999
0
VERTEX
8
0
10
4514
20
1999
0
VERTEX
8
0
10
4514
20
2039
0
VERTEX
8
0
10
4554
20
2039
0
VERTEX
8
0
10
4574
20
2039
0
VERTEX
8
0
10
4574
20
2059
0
VERTEX
8
0
10
4594
20
2059
0
VERTEX
8
0
10
4594
20
2079
0
VERTEX
8
0
10
4634
20
2079
0
VERTEX
8
0
10
4654
20
2079
0
VERTEX
8
0
10
4654
20
2099
0
VERTEX
8
0
10
4694
20
2099
0
VERTEX
8
0
10
4714
20
2099
0
VERTEX
8
0
10
4734
20
2099
0
VERTEX
8
0
10
4734
20
2119
0
VERTEX
8
0
10
4534
20
2119
0
VERTEX
8
0
10
4494
20
2119
0
VERTEX
8
0
10
4494
20
2099
0
VERTEX
8
0
10
4474
20
2099
0
VERTEX
8
0
10
4474
20
2079
0
VERTEX
8
0
10
4454
20
2079
0
VERTEX
8
0
10
4454
20
2059
0
VERTEX
8
0
10
4434
20
2059
0
VERTEX
8
0
10
4414
20
2059
0
VERTEX
8
0
10
4414
20
2039
0
VERTEX
8
0
10
4394
20
2039
0
VERTEX
8
0
10
4394
20
2019
0
VERTEX
8
0
10
4374
20
2019
0
VERTEX
8
0
10
4374
20
1999
0
VERTEX
8
0
10
4354
20
1999
0
VERTEX
8
0
10
4334
20
1999
0
VERTEX
8
0
10
4334
20
1979
0
SEQEND
0
POLYLINE
8
0
62
17
66
1
40
1
41
1
0
VERTEX
8
0
10
4454
20
2059
0
VERTEX
8
0
10
4454
20
2079
0
VERTEX
8
0
10
4474
20
2079
0
VERTEX
8
0
10
4474
20
2099
0
VERTEX
8
0
10
4434
20
2099
0
VERTEX
8
0
10
4434
20
2059
0
VERTEX
8
0
10
4454
20
2059
0
SEQEND
0
POLYLINE
8
0
62
17
66
1
40
1
41
1
0
VERTEX
8
0
10
4394
20
2039
0
VERTEX
8
0
10
4354
20
2039
0
VERTEX
8
0
10
4354
20
1999
0
VERTEX
8
0
10
4374
20
1999
0
VERTEX
8
0
10
4374
20
2019
0
VERTEX
8
0
10
4394
20
2019
0
VERTEX
8
0
10
4394
20
2039
0
SEQEND
0
POLYLINE
8
0
62
28
66
1
40
1
41
1
0
VERTEX
8
0
10
4714
20
2399
0
VERTEX
8
0
10
4714
20
2439
0
VERTEX
8
0
10
4694
20
2439
0
VERTEX
8
0
10
4694
20
2399
0
VERTEX
8
0
10
4714
20
2399
0
SEQEND
0
POLYLINE
8
0
62
27
66
1
40
1
41
1
0
VERTEX
8
0
10
4674
20
2439
0
VERTEX
8
0
10
4674
20
2399
0
VERTEX
8
0
10
4694
20
2399
0
VERTEX
8
0
10
4694
20
2439
0
VERTEX
8
0
10
4674
20
2439
0
SEQEND
0
POLYLINE
8
0
62
13
66
1
40
1
41
1
0
VERTEX
8
0
10
4674
20
2399
0
VERTEX
8
0
10
4674
20
2439
0
VERTEX
8
0
10
4654
20
2439
0
VERTEX
8
0
10
4654
20
2419
0
VERTEX
8
0
10
4654
20
2379
0
VERTEX
8
0
10
4634
20
2379
0
VERTEX
8
0
10
4634
20
2339
0
VERTEX
8
0
10
4654
20
2339
0
VERTEX
8
0
10
4654
20
2299
0
VERTEX
8
0
10
4674
20
2299
0
VERTEX
8
0
10
4674
20
2359
0
VERTEX
8
0
10
4694
20
2359
0
VERTEX
8
0
10
4694
20
2399
0
VERTEX
8
0
10
4674
20
2399
0
SEQEND
0
POLYLINE
8
0
62
13
66
1
40
1
41
1
0
VERTEX
8
0
10
4694
20
2359
0
VERTEX
8
0
10
4674
20
2359
0
VERTEX
8
0
10
4674
20
2299
0
VERTEX
8
0
10
4694
20
2299
0
VERTEX
8
0
10
4714
20
2299
0
VERTEX
8
0
10
4714
20
2319
0
VERTEX
8
0
10
4694
20
2319
0
VERTEX
8
0
10
4694
20
2359
0
SEQEND
0
POLYLINE
8
0
62
19
66
1
40
1
41
1
0
VERTEX
8
0
10
4734
20
2339
0
VERTEX
8
0
10
4714
20
2339
0
VERTEX
8
0
10
4714
20
2319
0
VERTEX
8
0
10
4714
20
2299
0
VERTEX
8
0
10
4734
20
2299
0
VERTEX
8
0
10
4734
20
2339
0
SEQEND
0
POLYLINE
8
0
62
15
66
1
40
1
41
1
0
VERTEX
8
0
10
4714
20
2339
0
VERTEX
8
0
10
4714
20
2359
0
VERTEX
8
0
10
4694
20
2359
0
VERTEX
8
0
10
4694
20
2319
0
VERTEX
8
0
10
4714
20
2319
0
VERTEX
8
0
10
4714
20
2339
0
SEQEND
0
POLYLINE
8
0
62
17
66
1
40
1
41
1
0
VERTEX
8
0
10
4714
20
2359
0
VERTEX
8
0
10
4714
20
2399
0
VERTEX
8
0
10
4694
20
2399
0
VERTEX
8
0
10
4694
20
2359
0
VERTEX
8
0
10
4714
20
2359
0
SEQEND
0
POLYLINE
8
0
62
15
66
1
40
1
41
1
0
VERTEX
8
0
10
4734
20
2299
0
VERTEX
8
0
10
4714
20
2299
0
VERTEX
8
0
10
4714
20
2259
0
VERTEX
8
0
10
4734
20
2259
0
VERTEX
8
0
10
4734
20
2299
0
SEQEND
0
POLYLINE
8
0
62
13
66
1
40
1
41
1
0
VERTEX
8
0
10
4694
20
2299
0
VERTEX
8
0
10
4674
20
2299
0
VERTEX
8
0
10
4654
20
2299
0
VERTEX
8
0
10
4654
20
2279
0
VERTEX
8
0
10
4674
20
2279
0
VERTEX
8
0
10
4674
20
2259
0
VERTEX
8
0
10
4694
20
2259
0
VERTEX
8
0
10
4694
20
2299
0
SEQEND
0
POLYLINE
8
0
62
13
66
1
40
1
41
1
0
VERTEX
8
0
10
4694
20
2259
0
VERTEX
8
0
10
4694
20
2239
0
VERTEX
8
0
10
4714
20
2239
0
VERTEX
8
0
10
4714
20
2259
0
VERTEX
8
0
10
4714
20
2299
0
VERTEX
8
0
10
4694
20
2299
0
VERTEX
8
0
10
4694
20
2259
0
SEQEND
0
POLYLINE
8
0
62
13
66
1
40
1
41
1
0
VERTEX
8
0
10
4694
20
2239
0
VERTEX
8
0
10
4694
20
2259
0
VERTEX
8
0
10
4674
20
2259
0
VERTEX
8
0
10
4674
20
2199
0
VERTEX
8
0
10
4694
20
2199
0
VERTEX
8
0
10
4694
20
2239
0
SEQEND
0
POLYLINE
8
0
62
29
66
1
40
1
41
1
0
VERTEX
8
0
10
4734
20
2259
0
VERTEX
8
0
10
4734
20
2219
0
VERTEX
8
0
10
4754
20
2219
0
VERTEX
8
0
10
4754
20
2259
0
VERTEX
8
0
10
4734
20
2259
0
SEQEND
0
POLYLINE
8
0
62
13
66
1
40
1
41
1
0
VERTEX
8
0
10
4734
20
2219
0
VERTEX
8
0
10
4734
20
2259
0
VERTEX
8
0
10
4714
20
2259
0
VERTEX
8
0
10
4714
20
2239
0
VERTEX
8
0
10
4694
20
2239
0
VERTEX
8
0
10
4694
20
2199
0
VERTEX
8
0
10
4714
20
2199
0
VERTEX
8
0
10
4714
20
2219
0
VERTEX
8
0
10
4734
20
2219
0
SEQEND
0
POLYLINE
8
0
62
15
66
1
40
1
41
1
0
VERTEX
8
0
10
4754
20
2219
0
VERTEX
8
0
10
4734
20
2219
0
VERTEX
8
0
10
4734
20
2199
0
VERTEX
8
0
10
4794
20
2199
0
VERTEX
8
0
10
4794
20
2219
0
VERTEX
8
0
10
4754
20
2219
0
SEQEND
0
POLYLINE
8
0
62
13
66
1
40
1
41
1
0
VERTEX
8
0
10
4734
20
2219
0
VERTEX
8
0
10
4714
20
2219
0
VERTEX
8
0
10
4714
20
2199
0
VERTEX
8
0
10
4694
20
2199
0
VERTEX
8
0
10
4674
20
2199
0
VERTEX
8
0
10
4654
20
2199
0
VERTEX
8
0
10
4654
20
2179
0
VERTEX
8
0
10
4634
20
2179
0
VERTEX
8
0
10
4634
20
2159
0
VERTEX
8
0
10
4594
20
2159
0
VERTEX
8
0
10
4574
20
2159
0
VERTEX
8
0
10
4574
20
2139
0
VERTEX
8
0
10
4534
20
2139
0
VERTEX
8
0
10
4534
20
2119
0
VERTEX
8
0
10
4734
20
2119
0
VERTEX
8
0
10
4734
20
2099
0
VERTEX
8
0
10
4734
20
2079
0
VERTEX
8
0
10
4754
20
2079
0
VERTEX
8
0
10
4754
20
2119
0
VERTEX
8
0
10
4774
20
2119
0
VERTEX
8
0
10
4794
20
2119
0
VERTEX
8
0
10
4814
20
2119
0
VERTEX
8
0
10
4814
20
2139
0
VERTEX
8
0
10
4854
20
2139
0
VERTEX
8
0
10
4854
20
2119
0
VERTEX
8
0
10
4874
20
2119
0
VERTEX
8
0
10
4894
20
2119
0
VERTEX
8
0
10
4894
20
2139
0
VERTEX
8
0
10
4934
20
2139
0
VERTEX
8
0
10
4934
20
2119
0
VERTEX
8
0
10
4954
20
2119
0
VERTEX
8
0
10
4954
20
2139
0
VERTEX
8
0
10
4994
20
2139
0
VERTEX
8
0
10
4994
20
2119
0
VERTEX
8
0
10
5014
20
2119
0
VERTEX
8
0
10
5074
20
2119
0
VERTEX
8
0
10
5074
20
2099
0
VERTEX
8
0
10
5114
20
2099
0
VERTEX
8
0
10
5114
20
2079
0
VERTEX
8
0
10
5134
20
2079
0
VERTEX
8
0
10
5134
20
2059
0
VERTEX
8
0
10
5154
20
2059
0
VERTEX
8
0
10
5194
20
2059
0
VERTEX
8
0
10
5194
20
2039
0
VERTEX
8
0
10
5214
20
2039
0
VERTEX
8
0
10
5214
20
2019
0
VERTEX
8
0
10
5254
20
2019
0
VERTEX
8
0
10
5254
20
1999
0
VERTEX
8
0
10
5274
20
1999
0
VERTEX
8
0
10
5274
20
1979
0
VERTEX
8
0
10
5314
20
1979
0
VERTEX
8
0
10
5314
20
1959
0
VERTEX
8
0
10
5334
20
1959
0
VERTEX
8
0
10
5334
20
1939
0
VERTEX
8
0
10
5354
20
1939
0
VERTEX
8
0
10
5354
20
1919
0
VERTEX
8
0
10
5374
20
1919
0
VERTEX
8
0
10
5374
20
1899
0
VERTEX
8
0
10
5394
20
1899
0
VERTEX
8
0
10
5394
20
1879
0
VERTEX
8
0
10
5414
20
1879
0
VERTEX
8
0
10
5414
20
1859
0
VERTEX
8
0
10
5434
20
1859
0
VERTEX
8
0
10
5434
20
1839
0
VERTEX
8
0
10
5434
20
1819
0
VERTEX
8
0
10
5454
20
1819
0
VERTEX
8
0
10
5474
20
1819
0
VERTEX
8
0
10
5474
20
1779
0
VERTEX
8
0
10
5494
20
1779
0
VERTEX
8
0
10
5494
20
1739
0
VERTEX
8
0
10
5514
20
1739
0
VERTEX
8
0
10
5514
20
1699
0
VERTEX
8
0
10
5534
20
1699
0
VERTEX
8
0
10
5534
20
1659
0
VERTEX
8
0
10
5514
20
1659
0
VERTEX
8
0
10
5494
20
1659
0
VERTEX
8
0
10
5494
20
1639
0
VERTEX
8
0
10
5534
20
1639
0
VERTEX
8
0
10
5534
20
1619
0
VERTEX
8
0
10
5634
20
1619
0
VERTEX
8
0
10
5634
20
1639
0
VERTEX
8
0
10
5614
20
1639
0
VERTEX
8
0
10
5614
20
1679
0
VERTEX
8
0
10
5614
20
1699
0
VERTEX
8
0
10
5614
20
1719
0
VERTEX
8
0
10
5594
20
1719
0
VERTEX
8
0
10
5594
20
1759
0
VERTEX
8
0
10
5574
20
1759
0
VERTEX
8
0
10
5574
20
1799
0
VERTEX
8
0
10
5574
20
1819
0
VERTEX
8
0
10
5554
20
1819
0
VERTEX
8
0
10
5554
20
1839
0
VERTEX
8
0
10
5534
20
1839
0
VERTEX
8
0
10
5534
20
1859
0
VERTEX
8
0
10
5534
20
1879
0
VERTEX
8
0
10
5514
20
1879
0
VERTEX
8
0
10
5514
20
1899
0
VERTEX
8
0
10
5494
20
1899
0
VERTEX
8
0
10
5494
20
1919
0
VERTEX
8
0
10
5454
20
1919
0
VERTEX
8
0
10
5454
20
1959
0
VERTEX
8
0
10
5454
20
1979
0
VERTEX
8
0
10
5434
20
1979
0
VERTEX
8
0
10
5434
20
1999
0
VERTEX
8
0
10
5414
20
1999
0
VERTEX
8
0
10
5374
20
1999
0
VERTEX
8
0
10
5374
20
2039
0
VERTEX
8
0
10
5334
20
2039
0
VERTEX
8
0
10
5334
20
2059
0
VERTEX
8
0
10
5314
20
2059
0
VERTEX
8
0
10
5314
20
2079
0
VERTEX
8
0
10
5274
20
2079
0
VERTEX
8
0
10
5274
20
2099
0
VERTEX
8
0
10
5234
20
2099
0
VERTEX
8
0
10
5234
20
2119
0
VERTEX
8
0
10
5214
20
2119
0
VERTEX
8
0
10
5214
20
2139
0
VERTEX
8
0
10
5174
20
2139
0
VERTEX
8
0
10
5174
20
2159
0
VERTEX
8
0
10
5134
20
2159
0
VERTEX
8
0
10
5074
20
2159
0
VERTEX
8
0
10
5074
20
2179
0
VERTEX
8
0
10
5054
20
2179
0
VERTEX
8
0
10
5054
20
2199
0
VERTEX
8
0
10
5034
20
2199
0
VERTEX
8
0
10
5034
20
2179
0
VERTEX
8
0
10
4994
20
2179
0
VERTEX
8
0
10
4994
20
2199
0
VERTEX
8
0
10
4954
20
2199
0
VERTEX
8
0
10
4874
20
2199
0
VERTEX
8
0
10
4834
20
2199
0
VERTEX
8
0
10
4794
20
2199
0
VERTEX
8
0
10
4734
20
2199
0
VERTEX
8
0
10
4734
20
2219
0
SEQEND
0
POLYLINE
8
0
62
13
66
1
40
1
41
1
0
VERTEX
8
0
10
4674
20
2259
0
VERTEX
8
0
10
4674
20
2279
0
VERTEX
8
0
10
4654
20
2279
0
VERTEX
8
0
10
4634
20
2279
0
VERTEX
8
0
10
4634
20
2259
0
VERTEX
8
0
10
4654
20
2259
0
VERTEX
8
0
10
4674
20
2259
0
SEQEND
0
POLYLINE
8
0
62
28
66
1
40
1
41
1
0
VERTEX
8
0
10
4834
20
2239
0
VERTEX
8
0
10
4794
20
2239
0
VERTEX
8
0
10
4794
20
2219
0
VERTEX
8
0
10
4834
20
2219
0
VERTEX
8
0
10
4834
20
2239
0
SEQEND
0
POLYLINE
8
0
62
15
66
1
40
1
41
1
0
VERTEX
8
0
10
4834
20
2219
0
VERTEX
8
0
10
4794
20
2219
0
VERTEX
8
0
10
4794
20
2199
0
VERTEX
8
0
10
4834
20
2199
0
VERTEX
8
0
10
4834
20
2219
0
SEQEND
0
POLYLINE
8
0
62
15
66
1
40
1
41
1
0
VERTEX
8
0
10
4654
20
2419
0
VERTEX
8
0
10
4614
20
2419
0
VERTEX
8
0
10
4614
20
2399
0
VERTEX
8
0
10
4634
20
2399
0
VERTEX
8
0
10
4634
20
2379
0
VERTEX
8
0
10
4654
20
2379
0
VERTEX
8
0
10
4654
20
2419
0
SEQEND
0
POLYLINE
8
0
62
13
66
1
40
1
41
1
0
VERTEX
8
0
10
4634
20
2399
0
VERTEX
8
0
10
4614
20
2399
0
VERTEX
8
0
10
4614
20
2379
0
VERTEX
8
0
10
4614
20
2339
0
VERTEX
8
0
10
4634
20
2339
0
VERTEX
8
0
10
4634
20
2379
0
VERTEX
8
0
10
4634
20
2399
0
SEQEND
0
POLYLINE
8
0
62
15
66
1
40
1
41
1
0
VERTEX
8
0
10
4614
20
2399
0
VERTEX
8
0
10
4614
20
2419
0
VERTEX
8
0
10
4594
20
2419
0
VERTEX
8
0
10
4594
20
2379
0
VERTEX
8
0
10
4614
20
2379
0
VERTEX
8
0
10
4614
20
2399
0
SEQEND
0
POLYLINE
8
0
62
19
66
1
40
1
41
1
0
VERTEX
8
0
10
4594
20
2419
0
VERTEX
8
0
10
4574
20
2419
0
VERTEX
8
0
10
4574
20
2379
0
VERTEX
8
0
10
4594
20
2379
0
VERTEX
8
0
10
4594
20
2419
0
SEQEND
0
POLYLINE
8
0
62
17
66
1
40
1
41
1
0
VERTEX
8
0
10
4594
20
2379
0
VERTEX
8
0
10
4594
20
2339
0
VERTEX
8
0
10
4614
20
2339
0
VERTEX
8
0
10
4614
20
2379
0
VERTEX
8
0
10
4594
20
2379
0
SEQEND
0
POLYLINE
8
0
62
13
66
1
40
1
41
1
0
VERTEX
8
0
10
4654
20
2339
0
VERTEX
8
0
10
4634
20
2339
0
VERTEX
8
0
10
4634
20
2299
0
VERTEX
8
0
10
4634
20
2279
0
VERTEX
8
0
10
4654
20
2279
0
VERTEX
8
0
10
4654
20
2299
0
VERTEX
8
0
10
4654
20
2339
0
SEQEND
0
POLYLINE
8
0
62
15
66
1
40
1
41
1
0
VERTEX
8
0
10
4634
20
2339
0
VERTEX
8
0
10
4614
20
2339
0
VERTEX
8
0
10
4614
20
2299
0
VERTEX
8
0
10
4634
20
2299
0
VERTEX
8
0
10
4634
20
2339
0
SEQEND
0
POLYLINE
8
0
62
19
66
1
40
1
41
1
0
VERTEX
8
0
10
4614
20
2339
0
VERTEX
8
0
10
4594
20
2339
0
VERTEX
8
0
10
4594
20
2299
0
VERTEX
8
0
10
4614
20
2299
0
VERTEX
8
0
10
4614
20
2339
0
SEQEND
0
POLYLINE
8
0
62
17
66
1
40
1
41
1
0
VERTEX
8
0
10
4634
20
2279
0
VERTEX
8
0
10
4634
20
2299
0
VERTEX
8
0
10
4614
20
2299
0
VERTEX
8
0
10
4614
20
2259
0
VERTEX
8
0
10
4634
20
2259
0
VERTEX
8
0
10
4634
20
2279
0
SEQEND
0
POLYLINE
8
0
62
13
66
1
40
1
41
1
0
VERTEX
8
0
10
4654
20
2259
0
VERTEX
8
0
10
4654
20
2219
0
VERTEX
8
0
10
4654
20
2199
0
VERTEX
8
0
10
4674
20
2199
0
VERTEX
8
0
10
4674
20
2259
0
VERTEX
8
0
10
4654
20
2259
0
SEQEND
0
POLYLINE
8
0
62
13
66
1
40
1
41
1
0
VERTEX
8
0
10
4654
20
2219
0
VERTEX
8
0
10
4654
20
2259
0
VERTEX
8
0
10
4634
20
2259
0
VERTEX
8
0
10
4634
20
2219
0
VERTEX
8
0
10
4654
20
2219
0
SEQEND
0
POLYLINE
8
0
62
19
66
1
40
1
41
1
0
VERTEX
8
0
10
4634
20
2219
0
VERTEX
8
0
10
4634
20
2259
0
VERTEX
8
0
10
4614
20
2259
0
VERTEX
8
0
10
4614
20
2219
0
VERTEX
8
0
10
4634
20
2219
0
SEQEND
0
POLYLINE
8
0
62
17
66
1
40
1
41
1
0
VERTEX
8
0
10
4654
20
2219
0
VERTEX
8
0
10
4634
20
2219
0
VERTEX
8
0
10
4634
20
2179
0
VERTEX
8
0
10
4654
20
2179
0
VERTEX
8
0
10
4654
20
2199
0
VERTEX
8
0
10
4654
20
2219
0
SEQEND
0
POLYLINE
8
0
62
17
66
1
40
1
41
1
0
VERTEX
8
0
10
4634
20
2159
0
VERTEX
8
0
10
4634
20
2179
0
VERTEX
8
0
10
4594
20
2179
0
VERTEX
8
0
10
4594
20
2159
0
VERTEX
8
0
10
4634
20
2159
0
SEQEND
0
POLYLINE
8
0
62
19
66
1
40
1
41
1
0
VERTEX
8
0
10
4574
20
2139
0
VERTEX
8
0
10
4574
20
2159
0
VERTEX
8
0
10
4534
20
2159
0
VERTEX
8
0
10
4534
20
2139
0
VERTEX
8
0
10
4574
20
2139
0
SEQEND
0
POLYLINE
8
0
62
19
66
1
40
1
41
1
0
VERTEX
8
0
10
4494
20
2139
0
VERTEX
8
0
10
4494
20
2119
0
VERTEX
8
0
10
4534
20
2119
0
VERTEX
8
0
10
4534
20
2139
0
VERTEX
8
0
10
4494
20
2139
0
SEQEND
0
POLYLINE
8
0
62
15
66
1
40
1
41
1
0
VERTEX
8
0
10
4554
20
2039
0
VERTEX
8
0
10
4514
20
2039
0
VERTEX
8
0
10
4514
20
1999
0
VERTEX
8
0
10
4534
20
1999
0
VERTEX
8
0
10
4534
20
2019
0
VERTEX
8
0
10
4554
20
2019
0
VERTEX
8
0
10
4554
20
2039
0
SEQEND
0
POLYLINE
8
0
62
15
66
1
40
1
41
1
0
VERTEX
8
0
10
4474
20
1959
0
VERTEX
8
0
10
4474
20
1979
0
VERTEX
8
0
10
4434
20
1979
0
VERTEX
8
0
10
4434
20
1939
0
VERTEX
8
0
10
4454
20
1939
0
VERTEX
8
0
10
4454
20
1959
0
VERTEX
8
0
10
4474
20
1959
0
SEQEND
0
POLYLINE
8
0
62
17
66
1
40
1
41
1
0
VERTEX
8
0
10
4634
20
2079
0
VERTEX
8
0
10
4634
20
2059
0
VERTEX
8
0
10
4674
20
2059
0
VERTEX
8
0
10
4674
20
2079
0
VERTEX
8
0
10
4654
20
2079
0
VERTEX
8
0
10
4634
20
2079
0
SEQEND
0
POLYLINE
8
0
62
13
66
1
40
1
41
1
0
VERTEX
8
0
10
4634
20
2059
0
VERTEX
8
0
10
4634
20
2079
0
VERTEX
8
0
10
4594
20
2079
0
VERTEX
8
0
10
4594
20
2059
0
VERTEX
8
0
10
4614
20
2059
0
VERTEX
8
0
10
4634
20
2059
0
SEQEND
0
POLYLINE
8
0
62
15
66
1
40
1
41
1
0
VERTEX
8
0
10
4614
20
2039
0
VERTEX
8
0
10
4614
20
2059
0
VERTEX
8
0
10
4594
20
2059
0
VERTEX
8
0
10
4574
20
2059
0
VERTEX
8
0
10
4574
20
2039
0
VERTEX
8
0
10
4614
20
2039
0
SEQEND
0
POLYLINE
8
0
62
13
66
1
40
1
41
1
0
VERTEX
8
0
10
4654
20
2099
0
VERTEX
8
0
10
4654
20
2079
0
VERTEX
8
0
10
4674
20
2079
0
VERTEX
8
0
10
4694
20
2079
0
VERTEX
8
0
10
4694
20
2099
0
VERTEX
8
0
10
4654
20
2099
0
SEQEND
0
POLYLINE
8
0
62
17
66
1
40
1
41
1
0
VERTEX
8
0
10
4794
20
2119
0
VERTEX
8
0
10
4774
20
2119
0
VERTEX
8
0
10
4774
20
2079
0
VERTEX
8
0
10
4774
20
2039
0
VERTEX
8
0
10
4794
20
2039
0
VERTEX
8
0
10
4794
20
2059
0
VERTEX
8
0
10
4794
20
2099
0
VERTEX
8
0
10
4794
20
2119
0
SEQEND
0
POLYLINE
8
0
62
17
66
1
40
1
41
1
0
VERTEX
8
0
10
4794
20
2119
0
VERTEX
8
0
10
4794
20
2099
0
VERTEX
8
0
10
4834
20
2099
0
VERTEX
8
0
10
4834
20
2119
0
VERTEX
8
0
10
4814
20
2119
0
VERTEX
8
0
10
4794
20
2119
0
SEQEND
0
POLYLINE
8
0
62
13
66
1
40
1
41
1
0
VERTEX
8
0
10
4854
20
2119
0
VERTEX
8
0
10
4854
20
2139
0
VERTEX
8
0
10
4814
20
2139
0
VERTEX
8
0
10
4814
20
2119
0
VERTEX
8
0
10
4834
20
2119
0
VERTEX
8
0
10
4854
20
2119
0
SEQEND
0
POLYLINE
8
0
62
29
66
1
40
1
41
1
0
VERTEX
8
0
10
4854
20
2119
0
VERTEX
8
0
10
4834
20
2119
0
VERTEX
8
0
10
4834
20
2099
0
VERTEX
8
0
10
4874
20
2099
0
VERTEX
8
0
10
4874
20
2119
0
VERTEX
8
0
10
4854
20
2119
0
SEQEND
0
POLYLINE
8
0
62
13
66
1
40
1
41
1
0
VERTEX
8
0
10
4734
20
2099
0
VERTEX
8
0
10
4714
20
2099
0
VERTEX
8
0
10
4714
20
2039
0
VERTEX
8
0
10
4694
20
2039
0
VERTEX
8
0
10
4694
20
2019
0
VERTEX
8
0
10
4714
20
2019
0
VERTEX
8
0
10
4734
20
2019
0
VERTEX
8
0
10
4734
20
2039
0
VERTEX
8
0
10
4754
20
2039
0
VERTEX
8
0
10
4754
20
2059
0
VERTEX
8
0
10
4734
20
2059
0
VERTEX
8
0
10
4734
20
2079
0
VERTEX
8
0
10
4734
20
2099
0
SEQEND
0
POLYLINE
8
0
62
13
66
1
40
1
41
1
0
VERTEX
8
0
10
4714
20
2099
0
VERTEX
8
0
10
4694
20
2099
0
VERTEX
8
0
10
4694
20
2079
0
VERTEX
8
0
10
4694
20
2039
0
VERTEX
8
0
10
4714
20
2039
0
VERTEX
8
0
10
4714
20
2099
0
SEQEND
0
POLYLINE
8
0
62
13
66
1
40
1
41
1
0
VERTEX
8
0
10
4754
20
2039
0
VERTEX
8
0
10
4734
20
2039
0
VERTEX
8
0
10
4734
20
2019
0
VERTEX
8
0
10
4734
20
1999
0
VERTEX
8
0
10
4774
20
1999
0
VERTEX
8
0
10
4774
20
2019
0
VERTEX
8
0
10
4754
20
2019
0
VERTEX
8
0
10
4754
20
2039
0
SEQEND
0
POLYLINE
8
0
62
13
66
1
40
1
41
1
0
VERTEX
8
0
10
4754
20
2059
0
VERTEX
8
0
10
4754
20
2039
0
VERTEX
8
0
10
4754
20
2019
0
VERTEX
8
0
10
4774
20
2019
0
VERTEX
8
0
10
4774
20
2039
0
VERTEX
8
0
10
4774
20
2079
0
VERTEX
8
0
10
4754
20
2079
0
VERTEX
8
0
10
4734
20
2079
0
VERTEX
8
0
10
4734
20
2059
0
VERTEX
8
0
10
4754
20
2059
0
SEQEND
0
POLYLINE
8
0
62
15
66
1
40
1
41
1
0
VERTEX
8
0
10
4694
20
2079
0
VERTEX
8
0
10
4674
20
2079
0
VERTEX
8
0
10
4674
20
2059
0
VERTEX
8
0
10
4674
20
2039
0
VERTEX
8
0
10
4694
20
2039
0
VERTEX
8
0
10
4694
20
2079
0
SEQEND
0
POLYLINE
8
0
62
19
66
1
40
1
41
1
0
VERTEX
8
0
10
4694
20
2039
0
VERTEX
8
0
10
4674
20
2039
0
VERTEX
8
0
10
4674
20
1999
0
VERTEX
8
0
10
4694
20
1999
0
VERTEX
8
0
10
4694
20
2019
0
VERTEX
8
0
10
4694
20
2039
0
SEQEND
0
POLYLINE
8
0
62
15
66
1
40
1
41
1
0
VERTEX
8
0
10
4694
20
1999
0
VERTEX
8
0
10
4694
20
1979
0
VERTEX
8
0
10
4714
20
1979
0
VERTEX
8
0
10
4714
20
2019
0
VERTEX
8
0
10
4694
20
2019
0
VERTEX
8
0
10
4694
20
1999
0
SEQEND
0
POLYLINE
8
0
62
13
66
1
40
1
41
1
0
VERTEX
8
0
10
4734
20
1999
0
VERTEX
8
0
10
4734
20
2019
0
VERTEX
8
0
10
4714
20
2019
0
VERTEX
8
0
10
4714
20
1979
0
VERTEX
8
0
10
4734
20
1979
0
VERTEX
8
0
10
4734
20
1999
0
SEQEND
0
POLYLINE
8
0
62
13
66
1
40
1
41
1
0
VERTEX
8
0
10
4714
20
1979
0
VERTEX
8
0
10
4714
20
1959
0
VERTEX
8
0
10
4754
20
1959
0
VERTEX
8
0
10
4774
20
1959
0
VERTEX
8
0
10
4774
20
1999
0
VERTEX
8
0
10
4734
20
1999
0
VERTEX
8
0
10
4734
20
1979
0
VERTEX
8
0
10
4714
20
1979
0
SEQEND
0
POLYLINE
8
0
62
19
66
1
40
1
41
1
0
VERTEX
8
0
10
4714
20
1959
0
VERTEX
8
0
10
4714
20
1979
0
VERTEX
8
0
10
4694
20
1979
0
VERTEX
8
0
10
4694
20
1939
0
VERTEX
8
0
10
4714
20
1939
0
VERTEX
8
0
10
4714
20
1959
0
SEQEND
0
POLYLINE
8
0
62
15
66
1
40
1
41
1
0
VERTEX
8
0
10
4754
20
1959
0
VERTEX
8
0
10
4714
20
1959
0
VERTEX
8
0
10
4714
20
1939
0
VERTEX
8
0
10
4734
20
1939
0
VERTEX
8
0
10
4734
20
1899
0
VERTEX
8
0
10
4754
20
1899
0
VERTEX
8
0
10
4754
20
1919
0
VERTEX
8
0
10
4754
20
1959
0
SEQEND
0
POLYLINE
8
0
62
28
66
1
40
1
41
1
0
VERTEX
8
0
10
4794
20
2059
0
VERTEX
8
0
10
4794
20
2039
0
VERTEX
8
0
10
4794
20
2019
0
VERTEX
8
0
10
4814
20
2019
0
VERTEX
8
0
10
4814
20
2059
0
VERTEX
8
0
10
4794
20
2059
0
SEQEND
0
POLYLINE
8
0
62
13
66
1
40
1
41
1
0
VERTEX
8
0
10
4794
20
2039
0
VERTEX
8
0
10
4774
20
2039
0
VERTEX
8
0
10
4774
20
2019
0
VERTEX
8
0
10
4774
20
1999
0
VERTEX
8
0
10
4774
20
1959
0
VERTEX
8
0
10
4774
20
1939
0
VERTEX
8
0
10
4794
20
1939
0
VERTEX
8
0
10
4794
20
1979
0
VERTEX
8
0
10
4794
20
2019
0
VERTEX
8
0
10
4794
20
2039
0
SEQEND
0
POLYLINE
8
0
62
17
66
1
40
1
41
1
0
VERTEX
8
0
10
4794
20
2019
0
VERTEX
8
0
10
4794
20
1979
0
VERTEX
8
0
10
4814
20
1979
0
VERTEX
8
0
10
4814
20
2019
0
VERTEX
8
0
10
4794
20
2019
0
SEQEND
0
POLYLINE
8
0
62
19
66
1
40
1
41
1
0
VERTEX
8
0
10
4834
20
1959
0
VERTEX
8
0
10
4814
20
1959
0
VERTEX
8
0
10
4814
20
1919
0
VERTEX
8
0
10
4834
20
1919
0
VERTEX
8
0
10
4834
20
1959
0
SEQEND
0
POLYLINE
8
0
62
15
66
1
40
1
41
1
0
VERTEX
8
0
10
4814
20
1959
0
VERTEX
8
0
10
4814
20
1979
0
VERTEX
8
0
10
4794
20
1979
0
VERTEX
8
0
10
4794
20
1939
0
VERTEX
8
0
10
4794
20
1919
0
VERTEX
8
0
10
4754
20
1919
0
VERTEX
8
0
10
4754
20
1899
0
VERTEX
8
0
10
4774
20
1899
0
VERTEX
8
0
10
4794
20
1899
0
VERTEX
8
0
10
4794
20
1879
0
VERTEX
8
0
10
4814
20
1879
0
VERTEX
8
0
10
4814
20
1919
0
VERTEX
8
0
10
4814
20
1959
0
SEQEND
0
POLYLINE
8
0
62
13
66
1
40
1
41
1
0
VERTEX
8
0
10
4754
20
2119
0
VERTEX
8
0
10
4754
20
2079
0
VERTEX
8
0
10
4774
20
2079
0
VERTEX
8
0
10
4774
20
2119
0
VERTEX
8
0
10
4754
20
2119
0
SEQEND
0
POLYLINE
8
0
62
15
66
1
40
1
41
1
0
VERTEX
8
0
10
4774
20
1959
0
VERTEX
8
0
10
4754
20
1959
0
VERTEX
8
0
10
4754
20
1919
0
VERTEX
8
0
10
4794
20
1919
0
VERTEX
8
0
10
4794
20
1939
0
VERTEX
8
0
10
4774
20
1939
0
VERTEX
8
0
10
4774
20
1959
0
SEQEND
0
POLYLINE
8
0
62
13
66
1
40
1
41
1
0
VERTEX
8
0
10
4834
20
2219
0
VERTEX
8
0
10
4834
20
2199
0
VERTEX
8
0
10
4874
20
2199
0
VERTEX
8
0
10
4874
20
2219
0
VERTEX
8
0
10
4834
20
2219
0
SEQEND
0
POLYLINE
8
0
62
252
66
1
40
1
41
1
0
VERTEX
8
0
10
3514
20
2559
0
VERTEX
8
0
10
3494
20
2559
0
VERTEX
8
0
10
3494
20
2199
0
VERTEX
8
0
10
3494
20
2179
0
VERTEX
8
0
10
3514
20
2179
0
VERTEX
8
0
10
3514
20
2559
0
SEQEND
0
POLYLINE
8
0
62
255
66
1
40
1
41
1
0
VERTEX
8
0
10
3494
20
2559
0
VERTEX
8
0
10
3255
20
2559
0
VERTEX
8
0
10
3255
20
2199
0
VERTEX
8
0
10
3494
20
2199
0
VERTEX
8
0
10
3494
20
2559
0
SEQEND
0
POLYLINE
8
0
62
255
66
1
40
1
41
1
0
VERTEX
8
0
10
3255
20
2199
0
VERTEX
8
0
10
3255
20
2159
0
VERTEX
8
0
10
3494
20
2159
0
VERTEX
8
0
10
3494
20
2179
0
VERTEX
8
0
10
3494
20
2199
0
VERTEX
8
0
10
3255
20
2199
0
SEQEND
0
POLYLINE
8
0
62
250
66
1
40
1
41
1
0
VERTEX
8
0
10
3255
20
2159
0
VERTEX
8
0
10
3255
20
2199
0
VERTEX
8
0
10
3255
20
2559
0
VERTEX
8
0
10
3235
20
2559
0
VERTEX
8
0
10
3235
20
2139
0
VERTEX
8
0
10
3255
20
2139
0
VERTEX
8
0
10
3255
20
2159
0
SEQEND
0
POLYLINE
8
0
62
255
66
1
40
1
41
1
0
VERTEX
8
0
10
3255
20
2139
0
VERTEX
8
0
10
3255
20
2119
0
VERTEX
8
0
10
3494
20
2119
0
VERTEX
8
0
10
3494
20
2159
0
VERTEX
8
0
10
3255
20
2159
0
VERTEX
8
0
10
3255
20
2139
0
SEQEND
0
POLYLINE
8
0
62
250
66
1
40
1
41
1
0
VERTEX
8
0
10
3255
20
2119
0
VERTEX
8
0
10
3255
20
2139
0
VERTEX
8
0
10
3235
20
2139
0
VERTEX
8
0
10
3235
20
2059
0
VERTEX
8
0
10
3255
20
2059
0
VERTEX
8
0
10
3255
20
2079
0
VERTEX
8
0
10
3255
20
2119
0
SEQEND
0
POLYLINE
8
0
62
255
66
1
40
1
41
1
0
VERTEX
8
0
10
3255
20
2079
0
VERTEX
8
0
10
3255
20
2059
0
VERTEX
8
0
10
3255
20
2039
0
VERTEX
8
0
10
3494
20
2039
0
VERTEX
8
0
10
3494
20
2079
0
VERTEX
8
0
10
3255
20
2079
0
SEQEND
0
POLYLINE
8
0
62
250
66
1
40
1
41
1
0
VERTEX
8
0
10
3255
20
2039
0
VERTEX
8
0
10
3255
20
2059
0
VERTEX
8
0
10
3235
20
2059
0
VERTEX
8
0
10
3235
20
1999
0
VERTEX
8
0
10
3255
20
1999
0
VERTEX
8
0
10
3255
20
2039
0
SEQEND
0
POLYLINE
8
0
62
255
66
1
40
1
41
1
0
VERTEX
8
0
10
3255
20
1999
0
VERTEX
8
0
10
3255
20
1979
0
VERTEX
8
0
10
3494
20
1979
0
VERTEX
8
0
10
3494
20
1999
0
VERTEX
8
0
10
3255
20
1999
0
SEQEND
0
POLYLINE
8
0
62
250
66
1
40
1
41
1
0
VERTEX
8
0
10
3255
20
1979
0
VERTEX
8
0
10
3255
20
1999
0
VERTEX
8
0
10
3235
20
1999
0
VERTEX
8
0
10
3235
20
1919
0
VERTEX
8
0
10
3255
20
1919
0
VERTEX
8
0
10
3255
20
1939
0
VERTEX
8
0
10
3255
20
1979
0
SEQEND
0
POLYLINE
8
0
62
255
66
1
40
1
41
1
0
VERTEX
8
0
10
3255
20
2039
0
VERTEX
8
0
10
3255
20
1999
0
VERTEX
8
0
10
3494
20
1999
0
VERTEX
8
0
10
3494
20
2039
0
VERTEX
8
0
10
3255
20
2039
0
SEQEND
0
POLYLINE
8
0
62
255
66
1
40
1
41
1
0
VERTEX
8
0
10
3255
20
2119
0
VERTEX
8
0
10
3255
20
2079
0
VERTEX
8
0
10
3494
20
2079
0
VERTEX
8
0
10
3494
20
2119
0
VERTEX
8
0
10
3255
20
2119
0
SEQEND
0
POLYLINE
8
0
62
252
66
1
40
1
41
1
0
VERTEX
8
0
10
3494
20
2179
0
VERTEX
8
0
10
3494
20
2159
0
VERTEX
8
0
10
3494
20
2119
0
VERTEX
8
0
10
3514
20
2119
0
VERTEX
8
0
10
3514
20
2179
0
VERTEX
8
0
10
3494
20
2179
0
SEQEND
0
POLYLINE
8
0
62
252
66
1
40
1
41
1
0
VERTEX
8
0
10
3514
20
2119
0
VERTEX
8
0
10
3494
20
2119
0
VERTEX
8
0
10
3494
20
2079
0
VERTEX
8
0
10
3514
20
2079
0
VERTEX
8
0
10
3514
20
2119
0
SEQEND
0
POLYLINE
8
0
62
252
66
1
40
1
41
1
0
VERTEX
8
0
10
3494
20
2079
0
VERTEX
8
0
10
3494
20
2039
0
VERTEX
8
0
10
3514
20
2039
0
VERTEX
8
0
10
3514
20
2079
0
VERTEX
8
0
10
3494
20
2079
0
SEQEND
0
POLYLINE
8
0
62
252
66
1
40
1
41
1
0
VERTEX
8
0
10
3514
20
2039
0
VERTEX
8
0
10
3494
20
2039
0
VERTEX
8
0
10
3494
20
1999
0
VERTEX
8
0
10
3514
20
1999
0
VERTEX
8
0
10
3514
20
2039
0
SEQEND
0
POLYLINE
8
0
62
252
66
1
40
1
41
1
0
VERTEX
8
0
10
3514
20
1999
0
VERTEX
8
0
10
3494
20
1999
0
VERTEX
8
0
10
3494
20
1979
0
VERTEX
8
0
10
3494
20
1939
0
VERTEX
8
0
10
3514
20
1939
0
VERTEX
8
0
10
3514
20
1959
0
VERTEX
8
0
10
3514
20
1999
0
SEQEND
0
POLYLINE
8
0
62
254
66
1
40
1
41
1
0
VERTEX
8
0
10
3534
20
1979
0
VERTEX
8
0
10
3534
20
1959
0
VERTEX
8
0
10
3514
20
1959
0
VERTEX
8
0
10
3514
20
1939
0
VERTEX
8
0
10
3494
20
1939
0
VERTEX
8
0
10
3255
20
1939
0
VERTEX
8
0
10
3255
20
1919
0
VERTEX
8
0
10
3934
20
1919
0
VERTEX
8
0
10
3934
20
1959
0
VERTEX
8
0
10
3554
20
1959
0
VERTEX
8
0
10
3554
20
1979
0
VERTEX
8
0
10
3534
20
1979
0
SEQEND
0
POLYLINE
8
0
62
254
66
1
40
1
41
1
0
VERTEX
8
0
10
3614
20
2059
0
VERTEX
8
0
10
3614
20
2039
0
VERTEX
8
0
10
3894
20
2039
0
VERTEX
8
0
10
3894
20
2059
0
VERTEX
8
0
10
3894
20
2079
0
VERTEX
8
0
10
3854
20
2079
0
VERTEX
8
0
10
3814
20
2079
0
VERTEX
8
0
10
3734
20
2079
0
VERTEX
8
0
10
3734
20
2099
0
VERTEX
8
0
10
3694
20
2099
0
VERTEX
8
0
10
3694
20
2079
0
VERTEX
8
0
10
3654
20
2079
0
VERTEX
8
0
10
3654
20
2059
0
VERTEX
8
0
10
3614
20
2059
0
SEQEND
0
POLYLINE
8
0
62
254
66
1
40
1
41
1
0
VERTEX
8
0
10
3594
20
2019
0
VERTEX
8
0
10
3594
20
1999
0
VERTEX
8
0
10
3914
20
1999
0
VERTEX
8
0
10
3914
20
2019
0
VERTEX
8
0
10
3914
20
2059
0
VERTEX
8
0
10
3894
20
2059
0
VERTEX
8
0
10
3894
20
2039
0
VERTEX
8
0
10
3614
20
2039
0
VERTEX
8
0
10
3594
20
2039
0
VERTEX
8
0
10
3594
20
2019
0
SEQEND
0
POLYLINE
8
0
62
254
66
1
40
1
41
1
0
VERTEX
8
0
10
3594
20
1999
0
VERTEX
8
0
10
3594
20
2019
0
VERTEX
8
0
10
3574
20
2019
0
VERTEX
8
0
10
3574
20
1999
0
VERTEX
8
0
10
3554
20
1999
0
VERTEX
8
0
10
3554
20
1979
0
VERTEX
8
0
10
3934
20
1979
0
VERTEX
8
0
10
3934
20
2019
0
VERTEX
8
0
10
3914
20
2019
0
VERTEX
8
0
10
3914
20
1999
0
VERTEX
8
0
10
3594
20
1999
0
SEQEND
0
POLYLINE
8
0
62
254
66
1
40
1
41
1
0
VERTEX
8
0
10
3554
20
1979
0
VERTEX
8
0
10
3554
20
1959
0
VERTEX
8
0
10
3934
20
1959
0
VERTEX
8
0
10
3934
20
1979
0
VERTEX
8
0
10
3554
20
1979
0
SEQEND
0
POLYLINE
8
0
62
254
66
1
40
1
41
1
0
VERTEX
8
0
10
3494
20
1979
0
VERTEX
8
0
10
3255
20
1979
0
VERTEX
8
0
10
3255
20
1939
0
VERTEX
8
0
10
3494
20
1939
0
VERTEX
8
0
10
3494
20
1979
0
SEQEND
0
POLYLINE
8
0
62
255
66
1
40
1
41
1
0
VERTEX
8
0
10
3734
20
2079
0
VERTEX
8
0
10
3814
20
2079
0
VERTEX
8
0
10
3814
20
2099
0
VERTEX
8
0
10
3734
20
2099
0
VERTEX
8
0
10
3734
20
2079
0
SEQEND
0
POLYLINE
8
0
62
254
66
1
40
1
41
1
0
VERTEX
8
0
10
3814
20
2099
0
VERTEX
8
0
10
3814
20
2079
0
VERTEX
8
0
10
3854
20
2079
0
VERTEX
8
0
10
3854
20
2099
0
VERTEX
8
0
10
3814
20
2099
0
SEQEND
0
POLYLINE
8
0
62
252
66
1
40
1
41
1
0
VERTEX
8
0
10
3934
20
1979
0
VERTEX
8
0
10
3934
20
1959
0
VERTEX
8
0
10
3934
20
1919
0
VERTEX
8
0
10
3954
20
1919
0
VERTEX
8
0
10
3954
20
1979
0
VERTEX
8
0
10
3934
20
1979
0
SEQEND
0
POLYLINE
8
0
62
254
66
1
40
1
41
1
0
VERTEX
8
0
10
3954
20
1879
0
VERTEX
8
0
10
3954
20
1919
0
VERTEX
8
0
10
3934
20
1919
0
VERTEX
8
0
10
3255
20
1919
0
VERTEX
8
0
10
3255
20
1879
0
VERTEX
8
0
10
3954
20
1879
0
SEQEND
0
POLYLINE
8
0
62
254
66
1
40
1
41
1
0
VERTEX
8
0
10
3954
20
1859
0
VERTEX
8
0
10
3954
20
1879
0
VERTEX
8
0
10
3255
20
1879
0
VERTEX
8
0
10
3255
20
1859
0
VERTEX
8
0
10
3614
20
1859
0
VERTEX
8
0
10
3654
20
1859
0
VERTEX
8
0
10
3954
20
1859
0
SEQEND
0
POLYLINE
8
0
62
254
66
1
40
1
41
1
0
VERTEX
8
0
10
3954
20
1779
0
VERTEX
8
0
10
3954
20
1819
0
VERTEX
8
0
10
3714
20
1819
0
VERTEX
8
0
10
3714
20
1779
0
VERTEX
8
0
10
3954
20
1779
0
SEQEND
0
POLYLINE
8
0
62
254
66
1
40
1
41
1
0
VERTEX
8
0
10
3954
20
1739
0
VERTEX
8
0
10
3954
20
1779
0
VERTEX
8
0
10
3714
20
1779
0
VERTEX
8
0
10
3714
20
1739
0
VERTEX
8
0
10
3954
20
1739
0
SEQEND
0
POLYLINE
8
0
62
254
66
1
40
1
41
1
0
VERTEX
8
0
10
3954
20
1819
0
VERTEX
8
0
10
3954
20
1859
0
VERTEX
8
0
10
3654
20
1859
0
VERTEX
8
0
10
3654
20
1839
0
VERTEX
8
0
10
3674
20
1839
0
VERTEX
8
0
10
3674
20
1819
0
VERTEX
8
0
10
3694
20
1819
0
VERTEX
8
0
10
3714
20
1819
0
VERTEX
8
0
10
3954
20
1819
0
SEQEND
0
POLYLINE
8
0
62
252
66
1
40
1
41
1
0
VERTEX
8
0
10
3654
20
1839
0
VERTEX
8
0
10
3654
20
1859
0
VERTEX
8
0
10
3614
20
1859
0
VERTEX
8
0
10
3614
20
1839
0
VERTEX
8
0
10
3654
20
1839
0
SEQEND
0
POLYLINE
8
0
62
253
66
1
40
1
41
1
0
VERTEX
8
0
10
3714
20
1779
0
VERTEX
8
0
10
3714
20
1819
0
VERTEX
8
0
10
3694
20
1819
0
VERTEX
8
0
10
3694
20
1779
0
VERTEX
8
0
10
3714
20
1779
0
SEQEND
0
POLYLINE
8
0
62
254
66
1
40
1
41
1
0
VERTEX
8
0
10
3714
20
1739
0
VERTEX
8
0
10
3714
20
1719
0
VERTEX
8
0
10
3714
20
1539
0
VERTEX
8
0
10
3714
20
1519
0
VERTEX
8
0
10
3954
20
1519
0
VERTEX
8
0
10
3954
20
1739
0
VERTEX
8
0
10
3714
20
1739
0
SEQEND
0
POLYLINE
8
0
62
251
66
1
40
1
41
1
0
VERTEX
8
0
10
3714
20
1719
0
VERTEX
8
0
10
3714
20
1739
0
VERTEX
8
0
10
3714
20
1779
0
VERTEX
8
0
10
3694
20
1779
0
VERTEX
8
0
10
3694
20
1719
0
VERTEX
8
0
10
3714
20
1719
0
SEQEND
0
POLYLINE
8
0
62
251
66
1
40
1
41
1
0
VERTEX
8
0
10
3714
20
1719
0
VERTEX
8
0
10
3694
20
1719
0
VERTEX
8
0
10
3694
20
1539
0
VERTEX
8
0
10
3714
20
1539
0
VERTEX
8
0
10
3714
20
1719
0
SEQEND
0
POLYLINE
8
0
62
254
66
1
40
1
41
1
0
VERTEX
8
0
10
3714
20
1500
0
VERTEX
8
0
10
3714
20
1480
0
VERTEX
8
0
10
3714
20
1460
0
VERTEX
8
0
10
3954
20
1460
0
VERTEX
8
0
10
3954
20
1500
0
VERTEX
8
0
10
3714
20
1500
0
SEQEND
0
POLYLINE
8
0
62
251
66
1
40
1
41
1
0
VERTEX
8
0
10
3714
20
1480
0
VERTEX
8
0
10
3714
20
1500
0
VERTEX
8
0
10
3714
20
1519
0
VERTEX
8
0
10
3714
20
1539
0
VERTEX
8
0
10
3694
20
1539
0
VERTEX
8
0
10
3694
20
1480
0
VERTEX
8
0
10
3714
20
1480
0
SEQEND
0
POLYLINE
8
0
62
254
66
1
40
1
41
1
0
VERTEX
8
0
10
3714
20
1519
0
VERTEX
8
0
10
3714
20
1500
0
VERTEX
8
0
10
3954
20
1500
0
VERTEX
8
0
10
3954
20
1519
0
VERTEX
8
0
10
3714
20
1519
0
SEQEND
0
POLYLINE
8
0
62
252
66
1
40
1
41
1
0
VERTEX
8
0
10
3714
20
1480
0
VERTEX
8
0
10
3694
20
1480
0
VERTEX
8
0
10
3694
20
1440
0
VERTEX
8
0
10
3714
20
1440
0
VERTEX
8
0
10
3714
20
1460
0
VERTEX
8
0
10
3714
20
1480
0
SEQEND
0
POLYLINE
8
0
62
254
66
1
40
1
41
1
0
VERTEX
8
0
10
3554
20
1839
0
VERTEX
8
0
10
3594
20
1839
0
VERTEX
8
0
10
3614
20
1839
0
VERTEX
8
0
10
3614
20
1859
0
VERTEX
8
0
10
3255
20
1859
0
VERTEX
8
0
10
3255
20
1819
0
VERTEX
8
0
10
3554
20
1819
0
VERTEX
8
0
10
3554
20
1839
0
SEQEND
0
POLYLINE
8
0
62
9
66
1
40
1
41
1
0
VERTEX
8
0
10
3594
20
1839
0
VERTEX
8
0
10
3554
20
1839
0
VERTEX
8
0
10
3554
20
1819
0
VERTEX
8
0
10
3594
20
1819
0
VERTEX
8
0
10
3594
20
1839
0
SEQEND
0
POLYLINE
8
0
62
254
66
1
40
1
41
1
0
VERTEX
8
0
10
3534
20
1779
0
VERTEX
8
0
10
3534
20
1799
0
VERTEX
8
0
10
3554
20
1799
0
VERTEX
8
0
10
3554
20
1819
0
VERTEX
8
0
10
3255
20
1819
0
VERTEX
8
0
10
3255
20
1779
0
VERTEX
8
0
10
3514
20
1779
0
VERTEX
8
0
10
3534
20
1779
0
SEQEND
0
POLYLINE
8
0
62
251
66
1
40
1
41
1
0
VERTEX
8
0
10
3494
20
1759
0
VERTEX
8
0
10
3494
20
1739
0
VERTEX
8
0
10
3494
20
1519
0
VERTEX
8
0
10
3494
20
1500
0
VERTEX
8
0
10
3514
20
1500
0
VERTEX
8
0
10
3514
20
1759
0
VERTEX
8
0
10
3494
20
1759
0
SEQEND
0
POLYLINE
8
0
62
254
66
1
40
1
41
1
0
VERTEX
8
0
10
3494
20
1739
0
VERTEX
8
0
10
3494
20
1759
0
VERTEX
8
0
10
3514
20
1759
0
VERTEX
8
0
10
3514
20
1779
0
VERTEX
8
0
10
3255
20
1779
0
VERTEX
8
0
10
3255
20
1759
0
VERTEX
8
0
10
3255
20
1739
0
VERTEX
8
0
10
3494
20
1739
0
SEQEND
0
POLYLINE
8
0
62
250
66
1
40
1
41
1
0
VERTEX
8
0
10
3255
20
1859
0
VERTEX
8
0
10
3255
20
1879
0
VERTEX
8
0
10
3255
20
1919
0
VERTEX
8
0
10
3235
20
1919
0
VERTEX
8
0
10
3235
20
1859
0
VERTEX
8
0
10
3255
20
1859
0
SEQEND
0
POLYLINE
8
0
62
250
66
1
40
1
41
1
0
VERTEX
8
0
10
3255
20
1779
0
VERTEX
8
0
10
3255
20
1819
0
VERTEX
8
0
10
3255
20
1859
0
VERTEX
8
0
10
3235
20
1859
0
VERTEX
8
0
10
3235
20
1759
0
VERTEX
8
0
10
3255
20
1759
0
VERTEX
8
0
10
3255
20
1779
0
SEQEND
0
POLYLINE
8
0
62
250
66
1
40
1
41
1
0
VERTEX
8
0
10
3255
20
1739
0
VERTEX
8
0
10
3255
20
1759
0
VERTEX
8
0
10
3235
20
1759
0
VERTEX
8
0
10
3235
20
1480
0
VERTEX
8
0
10
3255
20
1480
0
VERTEX
8
0
10
3255
20
1500
0
VERTEX
8
0
10
3255
20
1519
0
VERTEX
8
0
10
3255
20
1739
0
SEQEND
0
POLYLINE
8
0
62
254
66
1
40
1
41
1
0
VERTEX
8
0
10
3255
20
1500
0
VERTEX
8
0
10
3255
20
1480
0
VERTEX
8
0
10
3255
20
1460
0
VERTEX
8
0
10
3494
20
1460
0
VERTEX
8
0
10
3494
20
1500
0
VERTEX
8
0
10
3255
20
1500
0
SEQEND
0
POLYLINE
8
0
62
254
66
1
40
1
41
1
0
VERTEX
8
0
10
3255
20
1519
0
VERTEX
8
0
10
3255
20
1500
0
VERTEX
8
0
10
3494
20
1500
0
VERTEX
8
0
10
3494
20
1519
0
VERTEX
8
0
10
3255
20
1519
0
SEQEND
0
POLYLINE
8
0
62
252
66
1
40
1
41
1
0
VERTEX
8
0
10
3514
20
1500
0
VERTEX
8
0
10
3494
20
1500
0
VERTEX
8
0
10
3494
20
1460
0
VERTEX
8
0
10
3494
20
1440
0
VERTEX
8
0
10
3514
20
1440
0
VERTEX
8
0
10
3514
20
1500
0
SEQEND
0
POLYLINE
8
0
62
254
66
1
40
1
41
1
0
VERTEX
8
0
10
3255
20
1519
0
VERTEX
8
0
10
3494
20
1519
0
VERTEX
8
0
10
3494
20
1739
0
VERTEX
8
0
10
3255
20
1739
0
VERTEX
8
0
10
3255
20
1519
0
SEQEND
0
POLYLINE
8
0
62
8
66
1
40
1
41
1
0
VERTEX
8
0
10
3494
20
1440
0
VERTEX
8
0
10
3494
20
1420
0
VERTEX
8
0
10
3494
20
1400
0
VERTEX
8
0
10
3494
20
1380
0
VERTEX
8
0
10
3514
20
1380
0
VERTEX
8
0
10
3514
20
1440
0
VERTEX
8
0
10
3494
20
1440
0
SEQEND
0
POLYLINE
8
0
62
254
66
1
40
1
41
1
0
VERTEX
8
0
10
3494
20
1420
0
VERTEX
8
0
10
3494
20
1440
0
VERTEX
8
0
10
3255
20
1440
0
VERTEX
8
0
10
3255
20
1420
0
VERTEX
8
0
10
3494
20
1420
0
SEQEND
0
POLYLINE
8
0
62
254
66
1
40
1
41
1
0
VERTEX
8
0
10
3494
20
1440
0
VERTEX
8
0
10
3494
20
1460
0
VERTEX
8
0
10
3255
20
1460
0
VERTEX
8
0
10
3255
20
1440
0
VERTEX
8
0
10
3494
20
1440
0
SEQEND
0
POLYLINE
8
0
62
8
66
1
40
1
41
1
0
VERTEX
8
0
10
3514
20
1340
0
VERTEX
8
0
10
3514
20
1380
0
VERTEX
8
0
10
3494
20
1380
0
VERTEX
8
0
10
3494
20
1360
0
VERTEX
8
0
10
3494
20
1340
0
VERTEX
8
0
10
3514
20
1340
0
SEQEND
0
POLYLINE
8
0
62
8
66
1
40
1
41
1
0
VERTEX
8
0
10
3514
20
1340
0
VERTEX
8
0
10
3494
20
1340
0
VERTEX
8
0
10
3494
20
1320
0
VERTEX
8
0
10
3494
20
1300
0
VERTEX
8
0
10
3514
20
1300
0
VERTEX
8
0
10
3514
20
1340
0
SEQEND
0
POLYLINE
8
0
62
254
66
1
40
1
41
1
0
VERTEX
8
0
10
3494
20
1340
0
VERTEX
8
0
10
3494
20
1360
0
VERTEX
8
0
10
3255
20
1360
0
VERTEX
8
0
10
3255
20
1340
0
VERTEX
8
0
10
3494
20
1340
0
SEQEND
0
POLYLINE
8
0
62
254
66
1
40
1
41
1
0
VERTEX
8
0
10
3494
20
1360
0
VERTEX
8
0
10
3494
20
1380
0
VERTEX
8
0
10
3255
20
1380
0
VERTEX
8
0
10
3255
20
1360
0
VERTEX
8
0
10
3494
20
1360
0
SEQEND
0
POLYLINE
8
0
62
254
66
1
40
1
41
1
0
VERTEX
8
0
10
3494
20
1380
0
VERTEX
8
0
10
3494
20
1400
0
VERTEX
8
0
10
3255
20
1400
0
VERTEX
8
0
10
3255
20
1380
0
VERTEX
8
0
10
3494
20
1380
0
SEQEND
0
POLYLINE
8
0
62
254
66
1
40
1
41
1
0
VERTEX
8
0
10
3494
20
1400
0
VERTEX
8
0
10
3494
20
1420
0
VERTEX
8
0
10
3255
20
1420
0
VERTEX
8
0
10
3255
20
1400
0
VERTEX
8
0
10
3494
20
1400
0
SEQEND
0
POLYLINE
8
0
62
251
66
1
40
1
41
1
0
VERTEX
8
0
10
3494
20
1300
0
VERTEX
8
0
10
3494
20
1280
0
VERTEX
8
0
10
3494
20
1260
0
VERTEX
8
0
10
3514
20
1260
0
VERTEX
8
0
10
3514
20
1300
0
VERTEX
8
0
10
3494
20
1300
0
SEQEND
0
POLYLINE
8
0
62
254
66
1
40
1
41
1
0
VERTEX
8
0
10
3494
20
1280
0
VERTEX
8
0
10
3494
20
1300
0
VERTEX
8
0
10
3255
20
1300
0
VERTEX
8
0
10
3255
20
1280
0
VERTEX
8
0
10
3494
20
1280
0
SEQEND
0
POLYLINE
8
0
62
254
66
1
40
1
41
1
0
VERTEX
8
0
10
3494
20
1300
0
VERTEX
8
0
10
3494
20
1320
0
VERTEX
8
0
10
3255
20
1320
0
VERTEX
8
0
10
3255
20
1300
0
VERTEX
8
0
10
3494
20
1300
0
SEQEND
0
POLYLINE
8
0
62
251
66
1
40
1
41
1
0
VERTEX
8
0
10
3514
20
1220
0
VERTEX
8
0
10
3514
20
1260
0
VERTEX
8
0
10
3494
20
1260
0
VERTEX
8
0
10
3494
20
1240
0
VERTEX
8
0
10
3494
20
1220
0
VERTEX
8
0
10
3514
20
1220
0
SEQEND
0
POLYLINE
8
0
62
251
66
1
40
1
41
1
0
VERTEX
8
0
10
3514
20
1220
0
VERTEX
8
0
10
3494
20
1220
0
VERTEX
8
0
10
3494
20
1200
0
VERTEX
8
0
10
3494
20
1180
0
VERTEX
8
0
10
3514
20
1180
0
VERTEX
8
0
10
3514
20
1220
0
SEQEND
0
POLYLINE
8
0
62
254
66
1
40
1
41
1
0
VERTEX
8
0
10
3494
20
1220
0
VERTEX
8
0
10
3494
20
1240
0
VERTEX
8
0
10
3255
20
1240
0
VERTEX
8
0
10
3255
20
1220
0
VERTEX
8
0
10
3494
20
1220
0
SEQEND
0
POLYLINE
8
0
62
254
66
1
40
1
41
1
0
VERTEX
8
0
10
3494
20
1240
0
VERTEX
8
0
10
3494
20
1260
0
VERTEX
8
0
10
3255
20
1260
0
VERTEX
8
0
10
3255
20
1240
0
VERTEX
8
0
10
3494
20
1240
0
SEQEND
0
POLYLINE
8
0
62
254
66
1
40
1
41
1
0
VERTEX
8
0
10
3494
20
1260
0
VERTEX
8
0
10
3494
20
1280
0
VERTEX
8
0
10
3255
20
1280
0
VERTEX
8
0
10
3255
20
1260
0
VERTEX
8
0
10
3494
20
1260
0
SEQEND
0
POLYLINE
8
0
62
254
66
1
40
1
41
1
0
VERTEX
8
0
10
3494
20
1320
0
VERTEX
8
0
10
3494
20
1340
0
VERTEX
8
0
10
3255
20
1340
0
VERTEX
8
0
10
3255
20
1320
0
VERTEX
8
0
10
3494
20
1320
0
SEQEND
0
POLYLINE
8
0
62
27
66
1
40
1
41
1
0
VERTEX
8
0
10
3255
20
1420
0
VERTEX
8
0
10
3255
20
1440
0
VERTEX
8
0
10
3235
20
1440
0
VERTEX
8
0
10
3235
20
1400
0
VERTEX
8
0
10
3255
20
1400
0
VERTEX
8
0
10
3255
20
1420
0
SEQEND
0
POLYLINE
8
0
62
250
66
1
40
1
41
1
0
VERTEX
8
0
10
3255
20
1440
0
VERTEX
8
0
10
3255
20
1460
0
VERTEX
8
0
10
3255
20
1480
0
VERTEX
8
0
10
3235
20
1480
0
VERTEX
8
0
10
3235
20
1440
0
VERTEX
8
0
10
3255
20
1440
0
SEQEND
0
POLYLINE
8
0
62
37
66
1
40
1
41
1
0
VERTEX
8
0
10
3255
20
1340
0
VERTEX
8
0
10
3255
20
1360
0
VERTEX
8
0
10
3255
20
1380
0
VERTEX
8
0
10
3255
20
1400
0
VERTEX
8
0
10
3235
20
1400
0
VERTEX
8
0
10
3235
20
1340
0
VERTEX
8
0
10
3255
20
1340
0
SEQEND
0
POLYLINE
8
0
62
37
66
1
40
1
41
1
0
VERTEX
8
0
10
3255
20
1220
0
VERTEX
8
0
10
3255
20
1240
0
VERTEX
8
0
10
3235
20
1240
0
VERTEX
8
0
10
3235
20
1160
0
VERTEX
8
0
10
3255
20
1160
0
VERTEX
8
0
10
3255
20
1180
0
VERTEX
8
0
10
3255
20
1200
0
VERTEX
8
0
10
3255
20
1220
0
SEQEND
0
POLYLINE
8
0
62
37
66
1
40
1
41
1
0
VERTEX
8
0
10
3255
20
1300
0
VERTEX
8
0
10
3255
20
1320
0
VERTEX
8
0
10
3255
20
1340
0
VERTEX
8
0
10
3235
20
1340
0
VERTEX
8
0
10
3235
20
1300
0
VERTEX
8
0
10
3255
20
1300
0
SEQEND
0
POLYLINE
8
0
62
37
66
1
40
1
41
1
0
VERTEX
8
0
10
3255
20
1260
0
VERTEX
8
0
10
3255
20
1280
0
VERTEX
8
0
10
3255
20
1300
0
VERTEX
8
0
10
3235
20
1300
0
VERTEX
8
0
10
3235
20
1240
0
VERTEX
8
0
10
3255
20
1240
0
VERTEX
8
0
10
3255
20
1260
0
SEQEND
0
POLYLINE
8
0
62
255
66
1
40
1
41
1
0
VERTEX
8
0
10
3255
20
1180
0
VERTEX
8
0
10
3255
20
1160
0
VERTEX
8
0
10
3494
20
1160
0
VERTEX
8
0
10
3494
20
1180
0
VERTEX
8
0
10
3255
20
1180
0
SEQEND
0
POLYLINE
8
0
62
255
66
1
40
1
41
1
0
VERTEX
8
0
10
3255
20
1200
0
VERTEX
8
0
10
3255
20
1180
0
VERTEX
8
0
10
3494
20
1180
0
VERTEX
8
0
10
3494
20
1200
0
VERTEX
8
0
10
3255
20
1200
0
SEQEND
0
POLYLINE
8
0
62
255
66
1
40
1
41
1
0
VERTEX
8
0
10
3255
20
1160
0
VERTEX
8
0
10
3255
20
1120
0
VERTEX
8
0
10
3494
20
1120
0
VERTEX
8
0
10
3494
20
1140
0
VERTEX
8
0
10
3494
20
1160
0
VERTEX
8
0
10
3255
20
1160
0
SEQEND
0
POLYLINE
8
0
62
37
66
1
40
1
41
1
0
VERTEX
8
0
10
3255
20
1120
0
VERTEX
8
0
10
3255
20
1160
0
VERTEX
8
0
10
3235
20
1160
0
VERTEX
8
0
10
3235
20
740
0
VERTEX
8
0
10
3255
20
740
0
VERTEX
8
0
10
3255
20
1120
0
SEQEND
0
POLYLINE
8
0
62
251
66
1
40
1
41
1
0
VERTEX
8
0
10
3494
20
1180
0
VERTEX
8
0
10
3494
20
1160
0
VERTEX
8
0
10
3494
20
1140
0
VERTEX
8
0
10
3514
20
1140
0
VERTEX
8
0
10
3514
20
1180
0
VERTEX
8
0
10
3494
20
1180
0
SEQEND
0
POLYLINE
8
0
62
251
66
1
40
1
41
1
0
VERTEX
8
0
10
3494
20
1140
0
VERTEX
8
0
10
3494
20
1120
0
VERTEX
8
0
10
3494
20
740
0
VERTEX
8
0
10
3514
20
740
0
VERTEX
8
0
10
3514
20
1140
0
VERTEX
8
0
10
3494
20
1140
0
SEQEND
0
POLYLINE
8
0
62
255
66
1
40
1
41
1
0
VERTEX
8
0
10
3494
20
1120
0
VERTEX
8
0
10
3255
20
1120
0
VERTEX
8
0
10
3255
20
740
0
VERTEX
8
0
10
3494
20
740
0
VERTEX
8
0
10
3494
20
1120
0
SEQEND
0
POLYLINE
8
0
62
255
66
1
40
1
41
1
0
VERTEX
8
0
10
3255
20
1200
0
VERTEX
8
0
10
3494
20
1200
0
VERTEX
8
0
10
3494
20
1220
0
VERTEX
8
0
10
3255
20
1220
0
VERTEX
8
0
10
3255
20
1200
0
SEQEND
0
POLYLINE
8
0
62
254
66
1
40
1
41
1
0
VERTEX
8
0
10
3954
20
1340
0
VERTEX
8
0
10
3954
20
1360
0
VERTEX
8
0
10
3714
20
1360
0
VERTEX
8
0
10
3714
20
1340
0
VERTEX
8
0
10
3954
20
1340
0
SEQEND
0
POLYLINE
8
0
62
254
66
1
40
1
41
1
0
VERTEX
8
0
10
3954
20
1360
0
VERTEX
8
0
10
3954
20
1380
0
VERTEX
8
0
10
3714
20
1380
0
VERTEX
8
0
10
3714
20
1360
0
VERTEX
8
0
10
3954
20
1360
0
SEQEND
0
POLYLINE
8
0
62
254
66
1
40
1
41
1
0
VERTEX
8
0
10
3954
20
1380
0
VERTEX
8
0
10
3954
20
1400
0
VERTEX
8
0
10
3714
20
1400
0
VERTEX
8
0
10
3714
20
1380
0
VERTEX
8
0
10
3954
20
1380
0
SEQEND
0
POLYLINE
8
0
62
254
66
1
40
1
41
1
0
VERTEX
8
0
10
3954
20
1400
0
VERTEX
8
0
10
3954
20
1420
0
VERTEX
8
0
10
3714
20
1420
0
VERTEX
8
0
10
3714
20
1400
0
VERTEX
8
0
10
3954
20
1400
0
SEQEND
0
POLYLINE
8
0
62
254
66
1
40
1
41
1
0
VERTEX
8
0
10
3954
20
1420
0
VERTEX
8
0
10
3954
20
1440
0
VERTEX
8
0
10
3714
20
1440
0
VERTEX
8
0
10
3714
20
1420
0
VERTEX
8
0
10
3954
20
1420
0
SEQEND
0
POLYLINE
8
0
62
254
66
1
40
1
41
1
0
VERTEX
8
0
10
3954
20
1440
0
VERTEX
8
0
10
3954
20
1460
0
VERTEX
8
0
10
3714
20
1460
0
VERTEX
8
0
10
3714
20
1440
0
VERTEX
8
0
10
3954
20
1440
0
SEQEND
0
POLYLINE
8
0
62
254
66
1
40
1
41
1
0
VERTEX
8
0
10
3854
20
1240
0
VERTEX
8
0
10
3894
20
1240
0
VERTEX
8
0
10
3914
20
1240
0
VERTEX
8
0
10
3914
20
1260
0
VERTEX
8
0
10
3714
20
1260
0
VERTEX
8
0
10
3714
20
1240
0
VERTEX
8
0
10
3834
20
1240
0
VERTEX
8
0
10
3834
20
1220
0
VERTEX
8
0
10
3854
20
1220
0
VERTEX
8
0
10
3854
20
1240
0
SEQEND
0
POLYLINE
8
0
62
254
66
1
40
1
41
1
0
VERTEX
8
0
10
3894
20
1240
0
VERTEX
8
0
10
3854
20
1240
0
VERTEX
8
0
10
3854
20
1220
0
VERTEX
8
0
10
3894
20
1220
0
VERTEX
8
0
10
3894
20
1240
0
SEQEND
0
POLYLINE
8
0
62
21
66
1
40
1
41
1
0
VERTEX
8
0
10
3894
20
1220
0
VERTEX
8
0
10
3854
20
1220
0
VERTEX
8
0
10
3854
20
1200
0
VERTEX
8
0
10
3874
20
1200
0
VERTEX
8
0
10
3894
20
1200
0
VERTEX
8
0
10
3914
20
1200
0
VERTEX
8
0
10
3914
20
1180
0
VERTEX
8
0
10
3934
20
1180
0
VERTEX
8
0
10
3934
20
1220
0
VERTEX
8
0
10
3914
20
1220
0
VERTEX
8
0
10
3914
20
1240
0
VERTEX
8
0
10
3894
20
1240
0
VERTEX
8
0
10
3894
20
1220
0
SEQEND
0
POLYLINE
8
0
62
11
66
1
40
1
41
1
0
VERTEX
8
0
10
3914
20
1220
0
VERTEX
8
0
10
3934
20
1220
0
VERTEX
8
0
10
3954
20
1220
0
VERTEX
8
0
10
3954
20
1240
0
VERTEX
8
0
10
3914
20
1240
0
VERTEX
8
0
10
3914
20
1220
0
SEQEND
0
POLYLINE
8
0
62
254
66
1
40
1
41
1
0
VERTEX
8
0
10
3914
20
1260
0
VERTEX
8
0
10
3914
20
1240
0
VERTEX
8
0
10
3954
20
1240
0
VERTEX
8
0
10
3954
20
1260
0
VERTEX
8
0
10
3914
20
1260
0
SEQEND
0
POLYLINE
8
0
62
254
66
1
40
1
41
1
0
VERTEX
8
0
10
3954
20
1300
0
VERTEX
8
0
10
3954
20
1320
0
VERTEX
8
0
10
3714
20
1320
0
VERTEX
8
0
10
3714
20
1300
0
VERTEX
8
0
10
3954
20
1300
0
SEQEND
0
POLYLINE
8
0
62
254
66
1
40
1
41
1
0
VERTEX
8
0
10
3954
20
1280
0
VERTEX
8
0
10
3954
20
1300
0
VERTEX
8
0
10
3714
20
1300
0
VERTEX
8
0
10
3714
20
1280
0
VERTEX
8
0
10
3954
20
1280
0
SEQEND
0
POLYLINE
8
0
62
15
66
1
40
1
41
1
0
VERTEX
8
0
10
3994
20
1260
0
VERTEX
8
0
10
3954
20
1260
0
VERTEX
8
0
10
3954
20
1240
0
VERTEX
8
0
10
3954
20
1220
0
VERTEX
8
0
10
3974
20
1220
0
VERTEX
8
0
10
3974
20
1180
0
VERTEX
8
0
10
3994
20
1180
0
VERTEX
8
0
10
3994
20
1240
0
VERTEX
8
0
10
3994
20
1260
0
SEQEND
0
POLYLINE
8
0
62
13
66
1
40
1
41
1
0
VERTEX
8
0
10
3994
20
1260
0
VERTEX
8
0
10
3994
20
1240
0
VERTEX
8
0
10
4014
20
1240
0
VERTEX
8
0
10
4034
20
1240
0
VERTEX
8
0
10
4034
20
1200
0
VERTEX
8
0
10
4074
20
1200
0
VERTEX
8
0
10
4074
20
1260
0
VERTEX
8
0
10
4074
20
1280
0
VERTEX
8
0
10
4034
20
1280
0
VERTEX
8
0
10
4034
20
1260
0
VERTEX
8
0
10
3994
20
1260
0
SEQEND
0
POLYLINE
8
0
62
15
66
1
40
1
41
1
0
VERTEX
8
0
10
3974
20
1220
0
VERTEX
8
0
10
3954
20
1220
0
VERTEX
8
0
10
3954
20
1160
0
VERTEX
8
0
10
3974
20
1160
0
VERTEX
8
0
10
3974
20
1180
0
VERTEX
8
0
10
3974
20
1220
0
SEQEND
0
POLYLINE
8
0
62
13
66
1
40
1
41
1
0
VERTEX
8
0
10
4034
20
1240
0
VERTEX
8
0
10
4014
20
1240
0
VERTEX
8
0
10
4014
20
1180
0
VERTEX
8
0
10
4034
20
1180
0
VERTEX
8
0
10
4034
20
1200
0
VERTEX
8
0
10
4034
20
1240
0
SEQEND
0
POLYLINE
8
0
62
19
66
1
40
1
41
1
0
VERTEX
8
0
10
3994
20
1260
0
VERTEX
8
0
10
4034
20
1260
0
VERTEX
8
0
10
4034
20
1280
0
VERTEX
8
0
10
3994
20
1280
0
VERTEX
8
0
10
3994
20
1260
0
SEQEND
0
POLYLINE
8
0
62
15
66
1
40
1
41
1
0
VERTEX
8
0
10
4014
20
1240
0
VERTEX
8
0
10
3994
20
1240
0
VERTEX
8
0
10
3994
20
1180
0
VERTEX
8
0
10
3974
20
1180
0
VERTEX
8
0
10
3974
20
1160
0
VERTEX
8
0
10
3994
20
1160
0
VERTEX
8
0
10
4014
20
1160
0
VERTEX
8
0
10
4014
20
1180
0
VERTEX
8
0
10
4014
20
1240
0
SEQEND
0
POLYLINE
8
0
62
254
66
1
40
1
41
1
0
VERTEX
8
0
10
3954
20
1260
0
VERTEX
8
0
10
3954
20
1280
0
VERTEX
8
0
10
3714
20
1280
0
VERTEX
8
0
10
3714
20
1260
0
VERTEX
8
0
10
3914
20
1260
0
VERTEX
8
0
10
3954
20
1260
0
SEQEND
0
POLYLINE
8
0
62
254
66
1
40
1
41
1
0
VERTEX
8
0
10
3954
20
1320
0
VERTEX
8
0
10
3954
20
1340
0
VERTEX
8
0
10
3714
20
1340
0
VERTEX
8
0
10
3714
20
1320
0
VERTEX
8
0
10
3954
20
1320
0
SEQEND
0
POLYLINE
8
0
62
11
66
1
40
1
41
1
0
VERTEX
8
0
10
3954
20
1220
0
VERTEX
8
0
10
3934
20
1220
0
VERTEX
8
0
10
3934
20
1180
0
VERTEX
8
0
10
3934
20
1160
0
VERTEX
8
0
10
3954
20
1160
0
VERTEX
8
0
10
3954
20
1220
0
SEQEND
0
POLYLINE
8
0
62
8
66
1
40
1
41
1
0
VERTEX
8
0
10
3714
20
1420
0
VERTEX
8
0
10
3714
20
1440
0
VERTEX
8
0
10
3694
20
1440
0
VERTEX
8
0
10
3694
20
1380
0
VERTEX
8
0
10
3714
20
1380
0
VERTEX
8
0
10
3714
20
1400
0
VERTEX
8
0
10
3714
20
1420
0
SEQEND
0
POLYLINE
8
0
62
8
66
1
40
1
41
1
0
VERTEX
8
0
10
3694
20
1380
0
VERTEX
8
0
10
3694
20
1340
0
VERTEX
8
0
10
3714
20
1340
0
VERTEX
8
0
10
3714
20
1360
0
VERTEX
8
0
10
3714
20
1380
0
VERTEX
8
0
10
3694
20
1380
0
SEQEND
0
POLYLINE
8
0
62
8
66
1
40
1
41
1
0
VERTEX
8
0
10
3714
20
1340
0
VERTEX
8
0
10
3694
20
1340
0
VERTEX
8
0
10
3694
20
1300
0
VERTEX
8
0
10
3714
20
1300
0
VERTEX
8
0
10
3714
20
1320
0
VERTEX
8
0
10
3714
20
1340
0
SEQEND
0
POLYLINE
8
0
62
251
66
1
40
1
41
1
0
VERTEX
8
0
10
3714
20
1280
0
VERTEX
8
0
10
3714
20
1300
0
VERTEX
8
0
10
3694
20
1300
0
VERTEX
8
0
10
3694
20
1260
0
VERTEX
8
0
10
3714
20
1260
0
VERTEX
8
0
10
3714
20
1280
0
SEQEND
0
POLYLINE
8
0
62
251
66
1
40
1
41
1
0
VERTEX
8
0
10
3694
20
1260
0
VERTEX
8
0
10
3694
20
1220
0
VERTEX
8
0
10
3714
20
1220
0
VERTEX
8
0
10
3714
20
1240
0
VERTEX
8
0
10
3714
20
1260
0
VERTEX
8
0
10
3694
20
1260
0
SEQEND
0
POLYLINE
8
0
62
254
66
1
40
1
41
1
0
VERTEX
8
0
10
3714
20
1240
0
VERTEX
8
0
10
3714
20
1220
0
VERTEX
8
0
10
3774
20
1220
0
VERTEX
8
0
10
3814
20
1220
0
VERTEX
8
0
10
3834
20
1220
0
VERTEX
8
0
10
3834
20
1240
0
VERTEX
8
0
10
3714
20
1240
0
SEQEND
0
POLYLINE
8
0
62
251
66
1
40
1
41
1
0
VERTEX
8
0
10
3714
20
1220
0
VERTEX
8
0
10
3694
20
1220
0
VERTEX
8
0
10
3694
20
1180
0
VERTEX
8
0
10
3714
20
1180
0
VERTEX
8
0
10
3714
20
1220
0
SEQEND
0
POLYLINE
8
0
62
9
66
1
40
1
41
1
0
VERTEX
8
0
10
3834
20
1220
0
VERTEX
8
0
10
3814
20
1220
0
VERTEX
8
0
10
3814
20
1200
0
VERTEX
8
0
10
3794
20
1200
0
VERTEX
8
0
10
3794
20
1180
0
VERTEX
8
0
10
3814
20
1180
0
VERTEX
8
0
10
3834
20
1180
0
VERTEX
8
0
10
3834
20
1220
0
SEQEND
0
POLYLINE
8
0
62
254
66
1
40
1
41
1
0
VERTEX
8
0
10
3814
20
1220
0
VERTEX
8
0
10
3774
20
1220
0
VERTEX
8
0
10
3774
20
1200
0
VERTEX
8
0
10
3794
20
1200
0
VERTEX
8
0
10
3814
20
1200
0
VERTEX
8
0
10
3814
20
1220
0
SEQEND
0
POLYLINE
8
0
62
254
66
1
40
1
41
1
0
VERTEX
8
0
10
3774
20
1220
0
VERTEX
8
0
10
3714
20
1220
0
VERTEX
8
0
10
3714
20
1180
0
VERTEX
8
0
10
3734
20
1180
0
VERTEX
8
0
10
3734
20
1200
0
VERTEX
8
0
10
3754
20
1200
0
VERTEX
8
0
10
3774
20
1200
0
VERTEX
8
0
10
3774
20
1220
0
SEQEND
0
POLYLINE
8
0
62
9
66
1
40
1
41
1
0
VERTEX
8
0
10
3834
20
1180
0
VERTEX
8
0
10
3814
20
1180
0
VERTEX
8
0
10
3814
20
1120
0
VERTEX
8
0
10
3834
20
1120
0
VERTEX
8
0
10
3834
20
1180
0
SEQEND
0
POLYLINE
8
0
62
253
66
1
40
1
41
1
0
VERTEX
8
0
10
3794
20
1200
0
VERTEX
8
0
10
3774
20
1200
0
VERTEX
8
0
10
3774
20
1160
0
VERTEX
8
0
10
3794
20
1160
0
VERTEX
8
0
10
3794
20
1120
0
VERTEX
8
0
10
3814
20
1120
0
VERTEX
8
0
10
3814
20
1180
0
VERTEX
8
0
10
3794
20
1180
0
VERTEX
8
0
10
3794
20
1200
0
SEQEND
0
POLYLINE
8
0
62
254
66
1
40
1
41
1
0
VERTEX
8
0
10
3794
20
1160
0
VERTEX
8
0
10
3774
20
1160
0
VERTEX
8
0
10
3774
20
1120
0
VERTEX
8
0
10
3794
20
1120
0
VERTEX
8
0
10
3794
20
1160
0
SEQEND
0
POLYLINE
8
0
62
254
66
1
40
1
41
1
0
VERTEX
8
0
10
3774
20
1160
0
VERTEX
8
0
10
3774
20
1200
0
VERTEX
8
0
10
3754
20
1200
0
VERTEX
8
0
10
3754
20
1160
0
VERTEX
8
0
10
3774
20
1160
0
SEQEND
0
POLYLINE
8
0
62
254
66
1
40
1
41
1
0
VERTEX
8
0
10
3754
20
1160
0
VERTEX
8
0
10
3754
20
1200
0
VERTEX
8
0
10
3734
20
1200
0
VERTEX
8
0
10
3734
20
1180
0
VERTEX
8
0
10
3714
20
1180
0
VERTEX
8
0
10
3714
20
1160
0
VERTEX
8
0
10
3734
20
1160
0
VERTEX
8
0
10
3754
20
1160
0
SEQEND
0
POLYLINE
8
0
62
254
66
1
40
1
41
1
0
VERTEX
8
0
10
3774
20
1160
0
VERTEX
8
0
10
3754
20
1160
0
VERTEX
8
0
10
3754
20
1100
0
VERTEX
8
0
10
3774
20
1100
0
VERTEX
8
0
10
3794
20
1100
0
VERTEX
8
0
10
3794
20
1120
0
VERTEX
8
0
10
3774
20
1120
0
VERTEX
8
0
10
3774
20
1160
0
SEQEND
0
POLYLINE
8
0
62
254
66
1
40
1
41
1
0
VERTEX
8
0
10
3794
20
1120
0
VERTEX
8
0
10
3794
20
1100
0
VERTEX
8
0
10
3834
20
1100
0
VERTEX
8
0
10
3834
20
1120
0
VERTEX
8
0
10
3814
20
1120
0
VERTEX
8
0
10
3794
20
1120
0
SEQEND
0
POLYLINE
8
0
62
255
66
1
40
1
41
1
0
VERTEX
8
0
10
3794
20
1100
0
VERTEX
8
0
10
3774
20
1100
0
VERTEX
8
0
10
3774
20
1080
0
VERTEX
8
0
10
3714
20
1080
0
VERTEX
8
0
10
3714
20
740
0
VERTEX
8
0
10
3954
20
740
0
VERTEX
8
0
10
3954
20
1140
0
VERTEX
8
0
10
3914
20
1140
0
VERTEX
8
0
10
3914
20
1120
0
VERTEX
8
0
10
3874
20
1120
0
VERTEX
8
0
10
3834
20
1120
0
VERTEX
8
0
10
3834
20
1100
0
VERTEX
8
0
10
3794
20
1100
0
SEQEND
0
POLYLINE
8
0
62
254
66
1
40
1
41
1
0
VERTEX
8
0
10
3774
20
1100
0
VERTEX
8
0
10
3754
20
1100
0
VERTEX
8
0
10
3734
20
1100
0
VERTEX
8
0
10
3714
20
1100
0
VERTEX
8
0
10
3714
20
1080
0
VERTEX
8
0
10
3774
20
1080
0
VERTEX
8
0
10
3774
20
1100
0
SEQEND
0
POLYLINE
8
0
62
9
66
1
40
1
41
1
0
VERTEX
8
0
10
3834
20
1180
0
VERTEX
8
0
10
3834
20
1120
0
VERTEX
8
0
10
3874
20
1120
0
VERTEX
8
0
10
3874
20
1140
0
VERTEX
8
0
10
3854
20
1140
0
VERTEX
8
0
10
3854
20
1180
0
VERTEX
8
0
10
3834
20
1180
0
SEQEND
0
POLYLINE
8
0
62
254
66
1
40
1
41
1
0
VERTEX
8
0
10
3754
20
1100
0
VERTEX
8
0
10
3754
20
1160
0
VERTEX
8
0
10
3734
20
1160
0
VERTEX
8
0
10
3734
20
1100
0
VERTEX
8
0
10
3754
20
1100
0
SEQEND
0
POLYLINE
8
0
62
254
66
1
40
1
41
1
0
VERTEX
8
0
10
3734
20
1160
0
VERTEX
8
0
10
3714
20
1160
0
VERTEX
8
0
10
3714
20
1120
0
VERTEX
8
0
10
3714
20
1100
0
VERTEX
8
0
10
3734
20
1100
0
VERTEX
8
0
10
3734
20
1160
0
SEQEND
0
POLYLINE
8
0
62
251
66
1
40
1
41
1
0
VERTEX
8
0
10
3714
20
1160
0
VERTEX
8
0
10
3714
20
1180
0
VERTEX
8
0
10
3694
20
1180
0
VERTEX
8
0
10
3694
20
1120
0
VERTEX
8
0
10
3714
20
1120
0
VERTEX
8
0
10
3714
20
1160
0
SEQEND
0
POLYLINE
8
0
62
7
66
1
40
1
41
1
0
VERTEX
8
0
10
3694
20
1180
0
VERTEX
8
0
10
3654
20
1180
0
VERTEX
8
0
10
3654
20
1140
0
VERTEX
8
0
10
3674
20
1140
0
VERTEX
8
0
10
3674
20
1100
0
VERTEX
8
0
10
3674
20
1080
0
VERTEX
8
0
10
3694
20
1080
0
VERTEX
8
0
10
3694
20
1120
0
VERTEX
8
0
10
3694
20
1180
0
SEQEND
0
POLYLINE
8
0
62
7
66
1
40
1
41
1
0
VERTEX
8
0
10
3654
20
1140
0
VERTEX
8
0
10
3654
20
1100
0
VERTEX
8
0
10
3674
20
1100
0
VERTEX
8
0
10
3674
20
1140
0
VERTEX
8
0
10
3654
20
1140
0
SEQEND
0
POLYLINE
8
0
62
251
66
1
40
1
41
1
0
VERTEX
8
0
10
3714
20
1100
0
VERTEX
8
0
10
3714
20
1120
0
VERTEX
8
0
10
3694
20
1120
0
VERTEX
8
0
10
3694
20
1080
0
VERTEX
8
0
10
3714
20
1080
0
VERTEX
8
0
10
3714
20
1100
0
SEQEND
0
POLYLINE
8
0
62
251
66
1
40
1
41
1
0
VERTEX
8
0
10
3714
20
1080
0
VERTEX
8
0
10
3694
20
1080
0
VERTEX
8
0
10
3694
20
740
0
VERTEX
8
0
10
3714
20
740
0
VERTEX
8
0
10
3714
20
1080
0
SEQEND
0
POLYLINE
8
0
62
13
66
1
40
1
41
1
0
VERTEX
8
0
10
4034
20
1200
0
VERTEX
8
0
10
4034
20
1180
0
VERTEX
8
0
10
4054
20
1180
0
VERTEX
8
0
10
4074
20
1180
0
VERTEX
8
0
10
4074
20
1200
0
VERTEX
8
0
10
4034
20
1200
0
SEQEND
0
POLYLINE
8
0
62
17
66
1
40
1
41
1
0
VERTEX
8
0
10
4014
20
1180
0
VERTEX
8
0
10
4014
20
1160
0
VERTEX
8
0
10
4054
20
1160
0
VERTEX
8
0
10
4054
20
1180
0
VERTEX
8
0
10
4034
20
1180
0
VERTEX
8
0
10
4014
20
1180
0
SEQEND
0
POLYLINE
8
0
62
19
66
1
40
1
41
1
0
VERTEX
8
0
10
3994
20
1160
0
VERTEX
8
0
10
3974
20
1160
0
VERTEX
8
0
10
3954
20
1160
0
VERTEX
8
0
10
3954
20
1140
0
VERTEX
8
0
10
3994
20
1140
0
VERTEX
8
0
10
3994
20
1160
0
SEQEND
0
POLYLINE
8
0
62
21
66
1
40
1
41
1
0
VERTEX
8
0
10
3954
20
1140
0
VERTEX
8
0
10
3954
20
1160
0
VERTEX
8
0
10
3934
20
1160
0
VERTEX
8
0
10
3934
20
1180
0
VERTEX
8
0
10
3914
20
1180
0
VERTEX
8
0
10
3914
20
1200
0
VERTEX
8
0
10
3894
20
1200
0
VERTEX
8
0
10
3894
20
1140
0
VERTEX
8
0
10
3914
20
1140
0
VERTEX
8
0
10
3954
20
1140
0
SEQEND
0
POLYLINE
8
0
62
21
66
1
40
1
41
1
0
VERTEX
8
0
10
3874
20
1200
0
VERTEX
8
0
10
3854
20
1200
0
VERTEX
8
0
10
3854
20
1180
0
VERTEX
8
0
10
3854
20
1140
0
VERTEX
8
0
10
3874
20
1140
0
VERTEX
8
0
10
3874
20
1200
0
SEQEND
0
POLYLINE
8
0
62
9
66
1
40
1
41
1
0
VERTEX
8
0
10
3854
20
1180
0
VERTEX
8
0
10
3854
20
1200
0
VERTEX
8
0
10
3854
20
1220
0
VERTEX
8
0
10
3834
20
1220
0
VERTEX
8
0
10
3834
20
1180
0
VERTEX
8
0
10
3854
20
1180
0
SEQEND
0
POLYLINE
8
0
62
21
66
1
40
1
41
1
0
VERTEX
8
0
10
3894
20
1200
0
VERTEX
8
0
10
3874
20
1200
0
VERTEX
8
0
10
3874
20
1140
0
VERTEX
8
0
10
3894
20
1140
0
VERTEX
8
0
10
3894
20
1200
0
SEQEND
0
POLYLINE
8
0
62
254
66
1
40
1
41
1
0
VERTEX
8
0
10
3874
20
1140
0
VERTEX
8
0
10
3874
20
1120
0
VERTEX
8
0
10
3914
20
1120
0
VERTEX
8
0
10
3914
20
1140
0
VERTEX
8
0
10
3894
20
1140
0
VERTEX
8
0
10
3874
20
1140
0
SEQEND
0
POLYLINE
8
0
62
7
66
1
40
1
41
1
0
VERTEX
8
0
10
4854
20
1919
0
VERTEX
8
0
10
4834
20
1919
0
VERTEX
8
0
10
4834
20
1879
0
VERTEX
8
0
10
4854
20
1879
0
VERTEX
8
0
10
4854
20
1919
0
SEQEND
0
POLYLINE
8
0
62
17
66
1
40
1
41
1
0
VERTEX
8
0
10
4834
20
1919
0
VERTEX
8
0
10
4814
20
1919
0
VERTEX
8
0
10
4814
20
1879
0
VERTEX
8
0
10
4814
20
1859
0
VERTEX
8
0
10
4774
20
1859
0
VERTEX
8
0
10
4774
20
1839
0
VERTEX
8
0
10
4814
20
1839
0
VERTEX
8
0
10
4814
20
1819
0
VERTEX
8
0
10
4834
20
1819
0
VERTEX
8
0
10
4834
20
1839
0
VERTEX
8
0
10
4834
20
1879
0
VERTEX
8
0
10
4834
20
1919
0
SEQEND
0
POLYLINE
8
0
62
17
66
1
40
1
41
1
0
VERTEX
8
0
10
4794
20
1899
0
VERTEX
8
0
10
4774
20
1899
0
VERTEX
8
0
10
4774
20
1879
0
VERTEX
8
0
10
4774
20
1859
0
VERTEX
8
0
10
4814
20
1859
0
VERTEX
8
0
10
4814
20
1879
0
VERTEX
8
0
10
4794
20
1879
0
VERTEX
8
0
10
4794
20
1899
0
SEQEND
0
POLYLINE
8
0
62
15
66
1
40
1
41
1
0
VERTEX
8
0
10
4774
20
1839
0
VERTEX
8
0
10
4774
20
1859
0
VERTEX
8
0
10
4774
20
1879
0
VERTEX
8
0
10
4754
20
1879
0
VERTEX
8
0
10
4754
20
1839
0
VERTEX
8
0
10
4774
20
1839
0
SEQEND
0
POLYLINE
8
0
62
19
66
1
40
1
41
1
0
VERTEX
8
0
10
4834
20
1879
0
VERTEX
8
0
10
4834
20
1839
0
VERTEX
8
0
10
4854
20
1839
0
VERTEX
8
0
10
4854
20
1879
0
VERTEX
8
0
10
4834
20
1879
0
SEQEND
0
POLYLINE
8
0
62
19
66
1
40
1
41
1
0
VERTEX
8
0
10
4854
20
1839
0
VERTEX
8
0
10
4834
20
1839
0
VERTEX
8
0
10
4834
20
1819
0
VERTEX
8
0
10
4834
20
1799
0
VERTEX
8
0
10
4834
20
1779
0
VERTEX
8
0
10
4794
20
1779
0
VERTEX
8
0
10
4794
20
1759
0
VERTEX
8
0
10
4854
20
1759
0
VERTEX
8
0
10
4854
20
1779
0
VERTEX
8
0
10
4854
20
1819
0
VERTEX
8
0
10
4854
20
1839
0
SEQEND
0
POLYLINE
8
0
62
17
66
1
40
1
41
1
0
VERTEX
8
0
10
4814
20
1839
0
VERTEX
8
0
10
4774
20
1839
0
VERTEX
8
0
10
4754
20
1839
0
VERTEX
8
0
10
4754
20
1819
0
VERTEX
8
0
10
4794
20
1819
0
VERTEX
8
0
10
4814
20
1819
0
VERTEX
8
0
10
4814
20
1839
0
SEQEND
0
POLYLINE
8
0
62
15
66
1
40
1
41
1
0
VERTEX
8
0
10
4774
20
1879
0
VERTEX
8
0
10
4774
20
1899
0
VERTEX
8
0
10
4754
20
1899
0
VERTEX
8
0
10
4734
20
1899
0
VERTEX
8
0
10
4734
20
1879
0
VERTEX
8
0
10
4754
20
1879
0
VERTEX
8
0
10
4774
20
1879
0
SEQEND
0
POLYLINE
8
0
62
17
66
1
40
1
41
1
0
VERTEX
8
0
10
4734
20
1899
0
VERTEX
8
0
10
4734
20
1939
0
VERTEX
8
0
10
4714
20
1939
0
VERTEX
8
0
10
4714
20
1899
0
VERTEX
8
0
10
4734
20
1899
0
SEQEND
0
POLYLINE
8
0
62
19
66
1
40
1
41
1
0
VERTEX
8
0
10
4734
20
1899
0
VERTEX
8
0
10
4714
20
1899
0
VERTEX
8
0
10
4714
20
1859
0
VERTEX
8
0
10
4734
20
1859
0
VERTEX
8
0
10
4734
20
1879
0
VERTEX
8
0
10
4734
20
1899
0
SEQEND
0
POLYLINE
8
0
62
17
66
1
40
1
41
1
0
VERTEX
8
0
10
4734
20
1859
0
VERTEX
8
0
10
4734
20
1839
0
VERTEX
8
0
10
4754
20
1839
0
VERTEX
8
0
10
4754
20
1879
0
VERTEX
8
0
10
4734
20
1879
0
VERTEX
8
0
10
4734
20
1859
0
SEQEND
0
POLYLINE
8
0
62
19
66
1
40
1
41
1
0
VERTEX
8
0
10
4754
20
1839
0
VERTEX
8
0
10
4734
20
1839
0
VERTEX
8
0
10
4734
20
1799
0
VERTEX
8
0
10
4754
20
1799
0
VERTEX
8
0
10
4754
20
1819
0
VERTEX
8
0
10
4754
20
1839
0
SEQEND
0
POLYLINE
8
0
62
19
66
1
40
1
41
1
0
VERTEX
8
0
10
4754
20
1799
0
VERTEX
8
0
10
4754
20
1759
0
VERTEX
8
0
10
4774
20
1759
0
VERTEX
8
0
10
4774
20
1799
0
VERTEX
8
0
10
4754
20
1799
0
SEQEND
0
POLYLINE
8
0
62
28
66
1
40
1
41
1
0
VERTEX
8
0
10
4754
20
1759
0
VERTEX
8
0
10
4754
20
1719
0
VERTEX
8
0
10
4774
20
1719
0
VERTEX
8
0
10
4774
20
1739
0
VERTEX
8
0
10
4774
20
1759
0
VERTEX
8
0
10
4754
20
1759
0
SEQEND
0
POLYLINE
8
0
62
17
66
1
40
1
41
1
0
VERTEX
8
0
10
4754
20
1819
0
VERTEX
8
0
10
4754
20
1799
0
VERTEX
8
0
10
4774
20
1799
0
VERTEX
8
0
10
4794
20
1799
0
VERTEX
8
0
10
4794
20
1819
0
VERTEX
8
0
10
4754
20
1819
0
SEQEND
0
POLYLINE
8
0
62
7
66
1
40
1
41
1
0
VERTEX
8
0
10
4854
20
1819
0
VERTEX
8
0
10
4854
20
1779
0
VERTEX
8
0
10
4874
20
1779
0
VERTEX
8
0
10
4874
20
1819
0
VERTEX
8
0
10
4854
20
1819
0
SEQEND
0
POLYLINE
8
0
62
17
66
1
40
1
41
1
0
VERTEX
8
0
10
4834
20
1799
0
VERTEX
8
0
10
4834
20
1819
0
VERTEX
8
0
10
4814
20
1819
0
VERTEX
8
0
10
4794
20
1819
0
VERTEX
8
0
10
4794
20
1799
0
VERTEX
8
0
10
4834
20
1799
0
SEQEND
0
POLYLINE
8
0
62
17
66
1
40
1
41
1
0
VERTEX
8
0
10
4834
20
1779
0
VERTEX
8
0
10
4834
20
1799
0
VERTEX
8
0
10
4794
20
1799
0
VERTEX
8
0
10
4794
20
1779
0
VERTEX
8
0
10
4834
20
1779
0
SEQEND
0
POLYLINE
8
0
62
17
66
1
40
1
41
1
0
VERTEX
8
0
10
4794
20
1779
0
VERTEX
8
0
10
4794
20
1799
0
VERTEX
8
0
10
4774
20
1799
0
VERTEX
8
0
10
4774
20
1759
0
VERTEX
8
0
10
4794
20
1759
0
VERTEX
8
0
10
4794
20
1779
0
SEQEND
0
POLYLINE
8
0
62
19
66
1
40
1
41
1
0
VERTEX
8
0
10
4774
20
1759
0
VERTEX
8
0
10
4774
20
1739
0
VERTEX
8
0
10
4814
20
1739
0
VERTEX
8
0
10
4854
20
1739
0
VERTEX
8
0
10
4854
20
1759
0
VERTEX
8
0
10
4794
20
1759
0
VERTEX
8
0
10
4774
20
1759
0
SEQEND
0
POLYLINE
8
0
62
19
66
1
40
1
41
1
0
VERTEX
8
0
10
4774
20
1739
0
VERTEX
8
0
10
4774
20
1719
0
VERTEX
8
0
10
4774
20
1699
0
VERTEX
8
0
10
4794
20
1699
0
VERTEX
8
0
10
4814
20
1699
0
VERTEX
8
0
10
4814
20
1719
0
VERTEX
8
0
10
4814
20
1739
0
VERTEX
8
0
10
4774
20
1739
0
SEQEND
0
POLYLINE
8
0
62
19
66
1
40
1
41
1
0
VERTEX
8
0
10
4814
20
1739
0
VERTEX
8
0
10
4814
20
1719
0
VERTEX
8
0
10
4854
20
1719
0
VERTEX
8
0
10
4854
20
1739
0
VERTEX
8
0
10
4814
20
1739
0
SEQEND
0
POLYLINE
8
0
62
28
66
1
40
1
41
1
0
VERTEX
8
0
10
4854
20
1739
0
VERTEX
8
0
10
4854
20
1719
0
VERTEX
8
0
10
4874
20
1719
0
VERTEX
8
0
10
4874
20
1739
0
VERTEX
8
0
10
4874
20
1779
0
VERTEX
8
0
10
4854
20
1779
0
VERTEX
8
0
10
4854
20
1759
0
VERTEX
8
0
10
4854
20
1739
0
SEQEND
0
POLYLINE
8
0
62
28
66
1
40
1
41
1
0
VERTEX
8
0
10
4854
20
1719
0
VERTEX
8
0
10
4814
20
1719
0
VERTEX
8
0
10
4814
20
1699
0
VERTEX
8
0
10
4854
20
1699
0
VERTEX
8
0
10
4854
20
1719
0
SEQEND
0
POLYLINE
8
0
62
28
66
1
40
1
41
1
0
VERTEX
8
0
10
4854
20
1699
0
VERTEX
8
0
10
4814
20
1699
0
VERTEX
8
0
10
4794
20
1699
0
VERTEX
8
0
10
4794
20
1679
0
VERTEX
8
0
10
4874
20
1679
0
VERTEX
8
0
10
4874
20
1719
0
VERTEX
8
0
10
4854
20
1719
0
VERTEX
8
0
10
4854
20
1699
0
SEQEND
0
POLYLINE
8
0
62
7
66
1
40
1
41
1
0
VERTEX
8
0
10
4774
20
1699
0
VERTEX
8
0
10
4774
20
1659
0
VERTEX
8
0
10
4794
20
1659
0
VERTEX
8
0
10
4874
20
1659
0
VERTEX
8
0
10
4874
20
1679
0
VERTEX
8
0
10
4794
20
1679
0
VERTEX
8
0
10
4794
20
1699
0
VERTEX
8
0
10
4774
20
1699
0
SEQEND
0
POLYLINE
8
0
62
7
66
1
40
1
41
1
0
VERTEX
8
0
10
4794
20
1639
0
VERTEX
8
0
10
4794
20
1599
0
VERTEX
8
0
10
4854
20
1599
0
VERTEX
8
0
10
4854
20
1619
0
VERTEX
8
0
10
4894
20
1619
0
VERTEX
8
0
10
4894
20
1739
0
VERTEX
8
0
10
4874
20
1739
0
VERTEX
8
0
10
4874
20
1719
0
VERTEX
8
0
10
4874
20
1679
0
VERTEX
8
0
10
4874
20
1659
0
VERTEX
8
0
10
4874
20
1639
0
VERTEX
8
0
10
4834
20
1639
0
VERTEX
8
0
10
4834
20
1619
0
VERTEX
8
0
10
4814
20
1619
0
VERTEX
8
0
10
4814
20
1639
0
VERTEX
8
0
10
4794
20
1639
0
SEQEND
0
POLYLINE
8
0
62
7
66
1
40
1
41
1
0
VERTEX
8
0
10
4834
20
1619
0
VERTEX
8
0
10
4834
20
1639
0
VERTEX
8
0
10
4874
20
1639
0
VERTEX
8
0
10
4874
20
1659
0
VERTEX
8
0
10
4794
20
1659
0
VERTEX
8
0
10
4794
20
1639
0
VERTEX
8
0
10
4814
20
1639
0
VERTEX
8
0
10
4814
20
1619
0
VERTEX
8
0
10
4834
20
1619
0
SEQEND
0
POLYLINE
8
0
62
15
66
1
40
1
41
1
0
VERTEX
8
0
10
4414
20
1899
0
VERTEX
8
0
10
4414
20
1939
0
VERTEX
8
0
10
4394
20
1939
0
VERTEX
8
0
10
4394
20
1919
0
VERTEX
8
0
10
4394
20
1899
0
VERTEX
8
0
10
4414
20
1899
0
SEQEND
0
POLYLINE
8
0
62
15
66
1
40
1
41
1
0
VERTEX
8
0
10
4394
20
1899
0
VERTEX
8
0
10
4394
20
1919
0
VERTEX
8
0
10
4374
20
1919
0
VERTEX
8
0
10
4374
20
1899
0
VERTEX
8
0
10
4374
20
1879
0
VERTEX
8
0
10
4394
20
1879
0
VERTEX
8
0
10
4394
20
1899
0
SEQEND
0
POLYLINE
8
0
62
13
66
1
40
1
41
1
0
VERTEX
8
0
10
4374
20
1899
0
VERTEX
8
0
10
4354
20
1899
0
VERTEX
8
0
10
4354
20
1859
0
VERTEX
8
0
10
4374
20
1859
0
VERTEX
8
0
10
4374
20
1879
0
VERTEX
8
0
10
4374
20
1899
0
SEQEND
0
POLYLINE
8
0
62
19
66
1
40
1
41
1
0
VERTEX
8
0
10
4254
20
1859
0
VERTEX
8
0
10
4254
20
1899
0
VERTEX
8
0
10
4234
20
1899
0
VERTEX
8
0
10
4234
20
1859
0
VERTEX
8
0
10
4254
20
1859
0
SEQEND
0
POLYLINE
8
0
62
13
66
1
40
1
41
1
0
VERTEX
8
0
10
4334
20
1839
0
VERTEX
8
0
10
4314
20
1839
0
VERTEX
8
0
10
4314
20
1799
0
VERTEX
8
0
10
4334
20
1799
0
VERTEX
8
0
10
4334
20
1839
0
SEQEND
0
POLYLINE
8
0
62
15
66
1
40
1
41
1
0
VERTEX
8
0
10
4294
20
1719
0
VERTEX
8
0
10
4294
20
1759
0
VERTEX
8
0
10
4274
20
1759
0
VERTEX
8
0
10
4274
20
1739
0
VERTEX
8
0
10
4274
20
1719
0
VERTEX
8
0
10
4294
20
1719
0
SEQEND
0
POLYLINE
8
0
62
13
66
1
40
1
41
1
0
VERTEX
8
0
10
4274
20
1739
0
VERTEX
8
0
10
4254
20
1739
0
VERTEX
8
0
10
4254
20
1699
0
VERTEX
8
0
10
4274
20
1699
0
VERTEX
8
0
10
4274
20
1719
0
VERTEX
8
0
10
4274
20
1739
0
SEQEND
0
POLYLINE
8
0
62
17
66
1
40
1
41
1
0
VERTEX
8
0
10
4234
20
1859
0
VERTEX
8
0
10
4214
20
1859
0
VERTEX
8
0
10
4214
20
1819
0
VERTEX
8
0
10
4234
20
1819
0
VERTEX
8
0
10
4234
20
1859
0
SEQEND
0
POLYLINE
8
0
62
19
66
1
40
1
41
1
0
VERTEX
8
0
10
4194
20
1799
0
VERTEX
8
0
10
4174
20
1799
0
VERTEX
8
0
10
4174
20
1759
0
VERTEX
8
0
10
4194
20
1759
0
VERTEX
8
0
10
4194
20
1799
0
SEQEND
0
POLYLINE
8
0
62
15
66
1
40
1
41
1
0
VERTEX
8
0
10
4174
20
1719
0
VERTEX
8
0
10
4154
20
1719
0
VERTEX
8
0
10
4154
20
1699
0
VERTEX
8
0
10
4154
20
1679
0
VERTEX
8
0
10
4174
20
1679
0
VERTEX
8
0
10
4174
20
1719
0
SEQEND
0
POLYLINE
8
0
62
28
66
1
40
1
41
1
0
VERTEX
8
0
10
4154
20
1679
0
VERTEX
8
0
10
4154
20
1699
0
VERTEX
8
0
10
4134
20
1699
0
VERTEX
8
0
10
4134
20
1659
0
VERTEX
8
0
10
4154
20
1659
0
VERTEX
8
0
10
4154
20
1679
0
SEQEND
0
POLYLINE
8
0
62
15
66
1
40
1
41
1
0
VERTEX
8
0
10
4234
20
1659
0
VERTEX
8
0
10
4234
20
1619
0
VERTEX
8
0
10
4254
20
1619
0
VERTEX
8
0
10
4254
20
1639
0
VERTEX
8
0
10
4254
20
1659
0
VERTEX
8
0
10
4234
20
1659
0
SEQEND
0
POLYLINE
8
0
62
15
66
1
40
1
41
1
0
VERTEX
8
0
10
4154
20
1619
0
VERTEX
8
0
10
4154
20
1659
0
VERTEX
8
0
10
4134
20
1659
0
VERTEX
8
0
10
4134
20
1619
0
VERTEX
8
0
10
4154
20
1619
0
SEQEND
0
POLYLINE
8
0
62
28
66
1
40
1
41
1
0
VERTEX
8
0
10
4134
20
1619
0
VERTEX
8
0
10
4114
20
1619
0
VERTEX
8
0
10
4114
20
1579
0
VERTEX
8
0
10
4134
20
1579
0
VERTEX
8
0
10
4134
20
1619
0
SEQEND
0
POLYLINE
8
0
62
17
66
1
40
1
41
1
0
VERTEX
8
0
10
4134
20
1579
0
VERTEX
8
0
10
4114
20
1579
0
VERTEX
8
0
10
4114
20
1519
0
VERTEX
8
0
10
4134
20
1519
0
VERTEX
8
0
10
4134
20
1579
0
SEQEND
0
POLYLINE
8
0
62
15
66
1
40
1
41
1
0
VERTEX
8
0
10
4114
20
1519
0
VERTEX
8
0
10
4114
20
1480
0
VERTEX
8
0
10
4114
20
1440
0
VERTEX
8
0
10
4114
20
1400
0
VERTEX
8
0
10
4134
20
1400
0
VERTEX
8
0
10
4134
20
1519
0
VERTEX
8
0
10
4114
20
1519
0
SEQEND
0
POLYLINE
8
0
62
28
66
1
40
1
41
1
0
VERTEX
8
0
10
4114
20
1480
0
VERTEX
8
0
10
4094
20
1480
0
VERTEX
8
0
10
4094
20
1440
0
VERTEX
8
0
10
4114
20
1440
0
VERTEX
8
0
10
4114
20
1480
0
SEQEND
0
POLYLINE
8
0
62
15
66
1
40
1
41
1
0
VERTEX
8
0
10
4214
20
1579
0
VERTEX
8
0
10
4214
20
1539
0
VERTEX
8
0
10
4234
20
1539
0
VERTEX
8
0
10
4234
20
1579
0
VERTEX
8
0
10
4214
20
1579
0
SEQEND
0
POLYLINE
8
0
62
17
66
1
40
1
41
1
0
VERTEX
8
0
10
4234
20
1539
0
VERTEX
8
0
10
4214
20
1539
0
VERTEX
8
0
10
4214
20
1480
0
VERTEX
8
0
10
4234
20
1480
0
VERTEX
8
0
10
4234
20
1539
0
SEQEND
0
POLYLINE
8
0
62
19
66
1
40
1
41
1
0
VERTEX
8
0
10
4234
20
1480
0
VERTEX
8
0
10
4214
20
1480
0
VERTEX
8
0
10
4214
20
1420
0
VERTEX
8
0
10
4234
20
1420
0
VERTEX
8
0
10
4234
20
1480
0
SEQEND
0
POLYLINE
8
0
62
19
66
1
40
1
41
1
0
VERTEX
8
0
10
4234
20
1619
0
VERTEX
8
0
10
4234
20
1579
0
VERTEX
8
0
10
4254
20
1579
0
VERTEX
8
0
10
4254
20
1619
0
VERTEX
8
0
10
4234
20
1619
0
SEQEND
0
POLYLINE
8
0
62
19
66
1
40
1
41
1
0
VERTEX
8
0
10
4254
20
1699
0
VERTEX
8
0
10
4254
20
1659
0
VERTEX
8
0
10
4254
20
1639
0
VERTEX
8
0
10
4274
20
1639
0
VERTEX
8
0
10
4274
20
1699
0
VERTEX
8
0
10
4254
20
1699
0
SEQEND
0
POLYLINE
8
0
62
24
66
1
40
1
41
1
0
VERTEX
8
0
10
4354
20
1340
0
VERTEX
8
0
10
4374
20
1340
0
VERTEX
8
0
10
4374
20
1360
0
VERTEX
8
0
10
4314
20
1360
0
VERTEX
8
0
10
4314
20
1340
0
VERTEX
8
0
10
4334
20
1340
0
VERTEX
8
0
10
4354
20
1340
0
SEQEND
0
POLYLINE
8
0
62
14
66
1
40
1
41
1
0
VERTEX
8
0
10
4374
20
1340
0
VERTEX
8
0
10
4354
20
1340
0
VERTEX
8
0
10
4354
20
1280
0
VERTEX
8
0
10
4374
20
1280
0
VERTEX
8
0
10
4374
20
1300
0
VERTEX
8
0
10
4374
20
1340
0
SEQEND
0
POLYLINE
8
0
62
19
66
1
40
1
41
1
0
VERTEX
8
0
10
4374
20
1380
0
VERTEX
8
0
10
4374
20
1360
0
VERTEX
8
0
10
4394
20
1360
0
VERTEX
8
0
10
4414
20
1360
0
VERTEX
8
0
10
4414
20
1380
0
VERTEX
8
0
10
4374
20
1380
0
SEQEND
0
POLYLINE
8
0
62
14
66
1
40
1
41
1
0
VERTEX
8
0
10
4394
20
1360
0
VERTEX
8
0
10
4374
20
1360
0
VERTEX
8
0
10
4374
20
1340
0
VERTEX
8
0
10
4374
20
1300
0
VERTEX
8
0
10
4394
20
1300
0
VERTEX
8
0
10
4394
20
1360
0
SEQEND
0
POLYLINE
8
0
62
7
66
1
40
1
41
1
0
VERTEX
8
0
10
4434
20
1400
0
VERTEX
8
0
10
4434
20
1380
0
VERTEX
8
0
10
4474
20
1380
0
VERTEX
8
0
10
4474
20
1400
0
VERTEX
8
0
10
4434
20
1400
0
SEQEND
0
POLYLINE
8
0
62
16
66
1
40
1
41
1
0
VERTEX
8
0
10
4434
20
1380
0
VERTEX
8
0
10
4414
20
1380
0
VERTEX
8
0
10
4414
20
1360
0
VERTEX
8
0
10
4434
20
1360
0
VERTEX
8
0
10
4434
20
1320
0
VERTEX
8
0
10
4454
20
1320
0
VERTEX
8
0
10
4454
20
1360
0
VERTEX
8
0
10
4474
20
1360
0
VERTEX
8
0
10
4474
20
1380
0
VERTEX
8
0
10
4434
20
1380
0
SEQEND
0
POLYLINE
8
0
62
16
66
1
40
1
41
1
0
VERTEX
8
0
10
4434
20
1360
0
VERTEX
8
0
10
4414
20
1360
0
VERTEX
8
0
10
4414
20
1320
0
VERTEX
8
0
10
4434
20
1320
0
VERTEX
8
0
10
4434
20
1360
0
SEQEND
0
POLYLINE
8
0
62
14
66
1
40
1
41
1
0
VERTEX
8
0
10
4414
20
1360
0
VERTEX
8
0
10
4394
20
1360
0
VERTEX
8
0
10
4394
20
1300
0
VERTEX
8
0
10
4434
20
1300
0
VERTEX
8
0
10
4434
20
1320
0
VERTEX
8
0
10
4414
20
1320
0
VERTEX
8
0
10
4414
20
1360
0
SEQEND
0
POLYLINE
8
0
62
13
66
1
40
1
41
1
0
VERTEX
8
0
10
4294
20
1340
0
VERTEX
8
0
10
4254
20
1340
0
VERTEX
8
0
10
4254
20
1320
0
VERTEX
8
0
10
4274
20
1320
0
VERTEX
8
0
10
4274
20
1300
0
VERTEX
8
0
10
4294
20
1300
0
VERTEX
8
0
10
4294
20
1320
0
VERTEX
8
0
10
4294
20
1340
0
SEQEND
0
POLYLINE
8
0
62
13
66
1
40
1
41
1
0
VERTEX
8
0
10
4334
20
1340
0
VERTEX
8
0
10
4314
20
1340
0
VERTEX
8
0
10
4294
20
1340
0
VERTEX
8
0
10
4294
20
1320
0
VERTEX
8
0
10
4314
20
1320
0
VERTEX
8
0
10
4334
20
1320
0
VERTEX
8
0
10
4334
20
1340
0
SEQEND
0
POLYLINE
8
0
62
12
66
1
40
1
41
1
0
VERTEX
8
0
10
4314
20
1320
0
VERTEX
8
0
10
4314
20
1280
0
VERTEX
8
0
10
4354
20
1280
0
VERTEX
8
0
10
4354
20
1340
0
VERTEX
8
0
10
4334
20
1340
0
VERTEX
8
0
10
4334
20
1320
0
VERTEX
8
0
10
4314
20
1320
0
SEQEND
0
POLYLINE
8
0
62
12
66
1
40
1
41
1
0
VERTEX
8
0
10
4314
20
1280
0
VERTEX
8
0
10
4314
20
1320
0
VERTEX
8
0
10
4294
20
1320
0
VERTEX
8
0
10
4294
20
1300
0
VERTEX
8
0
10
4274
20
1300
0
VERTEX
8
0
10
4274
20
1260
0
VERTEX
8
0
10
4294
20
1260
0
VERTEX
8
0
10
4294
20
1240
0
VERTEX
8
0
10
4314
20
1240
0
VERTEX
8
0
10
4314
20
1260
0
VERTEX
8
0
10
4354
20
1260
0
VERTEX
8
0
10
4374
20
1260
0
VERTEX
8
0
10
4374
20
1280
0
VERTEX
8
0
10
4354
20
1280
0
VERTEX
8
0
10
4314
20
1280
0
SEQEND
0
POLYLINE
8
0
62
12
66
1
40
1
41
1
0
VERTEX
8
0
10
4274
20
1300
0
VERTEX
8
0
10
4254
20
1300
0
VERTEX
8
0
10
4254
20
1280
0
VERTEX
8
0
10
4234
20
1280
0
VERTEX
8
0
10
4234
20
1260
0
VERTEX
8
0
10
4234
20
1240
0
VERTEX
8
0
10
4254
20
1240
0
VERTEX
8
0
10
4254
20
1220
0
VERTEX
8
0
10
4274
20
1220
0
VERTEX
8
0
10
4274
20
1240
0
VERTEX
8
0
10
4294
20
1240
0
VERTEX
8
0
10
4294
20
1260
0
VERTEX
8
0
10
4274
20
1260
0
VERTEX
8
0
10
4274
20
1300
0
SEQEND
0
POLYLINE
8
0
62
12
66
1
40
1
41
1
0
VERTEX
8
0
10
4254
20
1220
0
VERTEX
8
0
10
4254
20
1240
0
VERTEX
8
0
10
4234
20
1240
0
VERTEX
8
0
10
4234
20
1260
0
VERTEX
8
0
10
4194
20
1260
0
VERTEX
8
0
10
4194
20
1240
0
VERTEX
8
0
10
4174
20
1240
0
VERTEX
8
0
10
4174
20
1220
0
VERTEX
8
0
10
4134
20
1220
0
VERTEX
8
0
10
4134
20
1200
0
VERTEX
8
0
10
4154
20
1200
0
VERTEX
8
0
10
4174
20
1200
0
VERTEX
8
0
10
4174
20
1160
0
VERTEX
8
0
10
4194
20
1160
0
VERTEX
8
0
10
4194
20
1140
0
VERTEX
8
0
10
4214
20
1140
0
VERTEX
8
0
10
4214
20
1100
0
VERTEX
8
0
10
4214
20
1060
0
VERTEX
8
0
10
4234
20
1060
0
VERTEX
8
0
10
4254
20
1060
0
VERTEX
8
0
10
4254
20
1020
0
VERTEX
8
0
10
4254
20
1000
0
VERTEX
8
0
10
4274
20
1000
0
VERTEX
8
0
10
4274
20
980
0
VERTEX
8
0
10
4314
20
980
0
VERTEX
8
0
10
4314
20
940
0
VERTEX
8
0
10
4314
20
920
0
VERTEX
8
0
10
4334
20
920
0
VERTEX
8
0
10
4334
20
900
0
VERTEX
8
0
10
4354
20
900
0
VERTEX
8
0
10
4374
20
900
0
VERTEX
8
0
10
4374
20
920
0
VERTEX
8
0
10
4434
20
920
0
VERTEX
8
0
10
4434
20
940
0
VERTEX
8
0
10
4434
20
960
0
VERTEX
8
0
10
4414
20
960
0
VERTEX
8
0
10
4414
20
980
0
VERTEX
8
0
10
4394
20
980
0
VERTEX
8
0
10
4394
20
1000
0
VERTEX
8
0
10
4374
20
1000
0
VERTEX
8
0
10
4374
20
1020
0
VERTEX
8
0
10
4334
20
1020
0
VERTEX
8
0
10
4334
20
1060
0
VERTEX
8
0
10
4334
20
1080
0
VERTEX
8
0
10
4314
20
1080
0
VERTEX
8
0
10
4314
20
1120
0
VERTEX
8
0
10
4294
20
1120
0
VERTEX
8
0
10
4294
20
1160
0
VERTEX
8
0
10
4274
20
1160
0
VERTEX
8
0
10
4274
20
1200
0
VERTEX
8
0
10
4254
20
1200
0
VERTEX
8
0
10
4254
20
1220
0
SEQEND
0
POLYLINE
8
0
62
16
66
1
40
1
41
1
0
VERTEX
8
0
10
4314
20
1260
0
VERTEX
8
0
10
4314
20
1240
0
VERTEX
8
0
10
4354
20
1240
0
VERTEX
8
0
10
4354
20
1260
0
VERTEX
8
0
10
4314
20
1260
0
SEQEND
0
POLYLINE
8
0
62
16
66
1
40
1
41
1
0
VERTEX
8
0
10
4454
20
1320
0
VERTEX
8
0
10
4434
20
1320
0
VERTEX
8
0
10
4434
20
1300
0
VERTEX
8
0
10
4434
20
1280
0
VERTEX
8
0
10
4454
20
1280
0
VERTEX
8
0
10
4454
20
1300
0
VERTEX
8
0
10
4454
20
1320
0
SEQEND
0
POLYLINE
8
0
62
14
66
1
40
1
41
1
0
VERTEX
8
0
10
4434
20
1280
0
VERTEX
8
0
10
4434
20
1300
0
VERTEX
8
0
10
4394
20
1300
0
VERTEX
8
0
10
4374
20
1300
0
VERTEX
8
0
10
4374
20
1280
0
VERTEX
8
0
10
4374
20
1260
0
VERTEX
8
0
10
4394
20
1260
0
VERTEX
8
0
10
4394
20
1280
0
VERTEX
8
0
10
4434
20
1280
0
SEQEND
0
POLYLINE
8
0
62
16
66
1
40
1
41
1
0
VERTEX
8
0
10
4454
20
1300
0
VERTEX
8
0
10
4454
20
1280
0
VERTEX
8
0
10
4494
20
1280
0
VERTEX
8
0
10
4494
20
1300
0
VERTEX
8
0
10
4454
20
1300
0
SEQEND
0
POLYLINE
8
0
62
16
66
1
40
1
41
1
0
VERTEX
8
0
10
4454
20
1320
0
VERTEX
8
0
10
4454
20
1300
0
VERTEX
8
0
10
4494
20
1300
0
VERTEX
8
0
10
4514
20
1300
0
VERTEX
8
0
10
4514
20
1320
0
VERTEX
8
0
10
4494
20
1320
0
VERTEX
8
0
10
4474
20
1320
0
VERTEX
8
0
10
4474
20
1360
0
VERTEX
8
0
10
4454
20
1360
0
VERTEX
8
0
10
4454
20
1320
0
SEQEND
0
POLYLINE
8
0
62
16
66
1
40
1
41
1
0
VERTEX
8
0
10
4394
20
1260
0
VERTEX
8
0
10
4434
20
1260
0
VERTEX
8
0
10
4434
20
1280
0
VERTEX
8
0
10
4394
20
1280
0
VERTEX
8
0
10
4394
20
1260
0
SEQEND
0
POLYLINE
8
0
62
15
66
1
40
1
41
1
0
VERTEX
8
0
10
4254
20
1320
0
VERTEX
8
0
10
4254
20
1340
0
VERTEX
8
0
10
4234
20
1340
0
VERTEX
8
0
10
4234
20
1360
0
VERTEX
8
0
10
4214
20
1360
0
VERTEX
8
0
10
4214
20
1320
0
VERTEX
8
0
10
4254
20
1320
0
SEQEND
0
POLYLINE
8
0
62
17
66
1
40
1
41
1
0
VERTEX
8
0
10
4234
20
1420
0
VERTEX
8
0
10
4214
20
1420
0
VERTEX
8
0
10
4214
20
1380
0
VERTEX
8
0
10
4214
20
1360
0
VERTEX
8
0
10
4234
20
1360
0
VERTEX
8
0
10
4234
20
1420
0
SEQEND
0
POLYLINE
8
0
62
13
66
1
40
1
41
1
0
VERTEX
8
0
10
4214
20
1380
0
VERTEX
8
0
10
4214
20
1420
0
VERTEX
8
0
10
4194
20
1420
0
VERTEX
8
0
10
4194
20
1380
0
VERTEX
8
0
10
4214
20
1380
0
SEQEND
0
POLYLINE
8
0
62
7
66
1
40
1
41
1
0
VERTEX
8
0
10
4094
20
1400
0
VERTEX
8
0
10
4094
20
1360
0
VERTEX
8
0
10
4114
20
1360
0
VERTEX
8
0
10
4114
20
1400
0
VERTEX
8
0
10
4094
20
1400
0
SEQEND
0
POLYLINE
8
0
62
15
66
1
40
1
41
1
0
VERTEX
8
0
10
4114
20
1400
0
VERTEX
8
0
10
4114
20
1360
0
VERTEX
8
0
10
4134
20
1360
0
VERTEX
8
0
10
4134
20
1400
0
VERTEX
8
0
10
4114
20
1400
0
SEQEND
0
POLYLINE
8
0
62
15
66
1
40
1
41
1
0
VERTEX
8
0
10
4134
20
1360
0
VERTEX
8
0
10
4114
20
1360
0
VERTEX
8
0
10
4114
20
1320
0
VERTEX
8
0
10
4134
20
1320
0
VERTEX
8
0
10
4134
20
1360
0
SEQEND
0
POLYLINE
8
0
62
13
66
1
40
1
41
1
0
VERTEX
8
0
10
4134
20
1280
0
VERTEX
8
0
10
4134
20
1300
0
VERTEX
8
0
10
4114
20
1300
0
VERTEX
8
0
10
4114
20
1280
0
VERTEX
8
0
10
4074
20
1280
0
VERTEX
8
0
10
4074
20
1260
0
VERTEX
8
0
10
4094
20
1260
0
VERTEX
8
0
10
4094
20
1240
0
VERTEX
8
0
10
4114
20
1240
0
VERTEX
8
0
10
4114
20
1260
0
VERTEX
8
0
10
4134
20
1260
0
VERTEX
8
0
10
4134
20
1280
0
SEQEND
0
POLYLINE
8
0
62
17
66
1
40
1
41
1
0
VERTEX
8
0
10
4114
20
1280
0
VERTEX
8
0
10
4114
20
1300
0
VERTEX
8
0
10
4074
20
1300
0
VERTEX
8
0
10
4074
20
1280
0
VERTEX
8
0
10
4114
20
1280
0
SEQEND
0
POLYLINE
8
0
62
13
66
1
40
1
41
1
0
VERTEX
8
0
10
4094
20
1240
0
VERTEX
8
0
10
4094
20
1260
0
VERTEX
8
0
10
4074
20
1260
0
VERTEX
8
0
10
4074
20
1200
0
VERTEX
8
0
10
4094
20
1200
0
VERTEX
8
0
10
4094
20
1220
0
VERTEX
8
0
10
4114
20
1220
0
VERTEX
8
0
10
4114
20
1240
0
VERTEX
8
0
10
4094
20
1240
0
SEQEND
0
POLYLINE
8
0
62
22
66
1
40
1
41
1
0
VERTEX
8
0
10
4134
20
1240
0
VERTEX
8
0
10
4134
20
1220
0
VERTEX
8
0
10
4174
20
1220
0
VERTEX
8
0
10
4174
20
1240
0
VERTEX
8
0
10
4134
20
1240
0
SEQEND
0
POLYLINE
8
0
62
13
66
1
40
1
41
1
0
VERTEX
8
0
10
4134
20
1220
0
VERTEX
8
0
10
4134
20
1240
0
VERTEX
8
0
10
4134
20
1260
0
VERTEX
8
0
10
4114
20
1260
0
VERTEX
8
0
10
4114
20
1240
0
VERTEX
8
0
10
4114
20
1220
0
VERTEX
8
0
10
4134
20
1220
0
SEQEND
0
POLYLINE
8
0
62
13
66
1
40
1
41
1
0
VERTEX
8
0
10
4134
20
1260
0
VERTEX
8
0
10
4134
20
1240
0
VERTEX
8
0
10
4174
20
1240
0
VERTEX
8
0
10
4174
20
1260
0
VERTEX
8
0
10
4154
20
1260
0
VERTEX
8
0
10
4154
20
1280
0
VERTEX
8
0
10
4134
20
1280
0
VERTEX
8
0
10
4134
20
1260
0
SEQEND
0
POLYLINE
8
0
62
13
66
1
40
1
41
1
0
VERTEX
8
0
10
4134
20
1220
0
VERTEX
8
0
10
4114
20
1220
0
VERTEX
8
0
10
4094
20
1220
0
VERTEX
8
0
10
4094
20
1200
0
VERTEX
8
0
10
4114
20
1200
0
VERTEX
8
0
10
4134
20
1200
0
VERTEX
8
0
10
4134
20
1220
0
SEQEND
0
POLYLINE
8
0
62
13
66
1
40
1
41
1
0
VERTEX
8
0
10
4234
20
1260
0
VERTEX
8
0
10
4234
20
1280
0
VERTEX
8
0
10
4194
20
1280
0
VERTEX
8
0
10
4194
20
1260
0
VERTEX
8
0
10
4234
20
1260
0
SEQEND
0
POLYLINE
8
0
62
13
66
1
40
1
41
1
0
VERTEX
8
0
10
4134
20
1360
0
VERTEX
8
0
10
4134
20
1320
0
VERTEX
8
0
10
4154
20
1320
0
VERTEX
8
0
10
4154
20
1360
0
VERTEX
8
0
10
4134
20
1360
0
SEQEND
0
POLYLINE
8
0
62
16
66
1
40
1
41
1
0
VERTEX
8
0
10
4154
20
1200
0
VERTEX
8
0
10
4154
20
1160
0
VERTEX
8
0
10
4174
20
1160
0
VERTEX
8
0
10
4174
20
1200
0
VERTEX
8
0
10
4154
20
1200
0
SEQEND
0
POLYLINE
8
0
62
14
66
1
40
1
41
1
0
VERTEX
8
0
10
4194
20
1160
0
VERTEX
8
0
10
4174
20
1160
0
VERTEX
8
0
10
4174
20
1120
0
VERTEX
8
0
10
4194
20
1120
0
VERTEX
8
0
10
4194
20
1140
0
VERTEX
8
0
10
4194
20
1160
0
SEQEND
0
POLYLINE
8
0
62
12
66
1
40
1
41
1
0
VERTEX
8
0
10
4194
20
1120
0
VERTEX
8
0
10
4194
20
1100
0
VERTEX
8
0
10
4214
20
1100
0
VERTEX
8
0
10
4214
20
1140
0
VERTEX
8
0
10
4194
20
1140
0
VERTEX
8
0
10
4194
20
1120
0
SEQEND
0
POLYLINE
8
0
62
24
66
1
40
1
41
1
0
VERTEX
8
0
10
4114
20
1180
0
VERTEX
8
0
10
4114
20
1200
0
VERTEX
8
0
10
4094
20
1200
0
VERTEX
8
0
10
4074
20
1200
0
VERTEX
8
0
10
4074
20
1180
0
VERTEX
8
0
10
4114
20
1180
0
SEQEND
0
POLYLINE
8
0
62
14
66
1
40
1
41
1
0
VERTEX
8
0
10
4234
20
1060
0
VERTEX
8
0
10
4234
20
1020
0
VERTEX
8
0
10
4254
20
1020
0
VERTEX
8
0
10
4254
20
1060
0
VERTEX
8
0
10
4234
20
1060
0
SEQEND
0
POLYLINE
8
0
62
18
66
1
40
1
41
1
0
VERTEX
8
0
10
4274
20
1200
0
VERTEX
8
0
10
4274
20
1160
0
VERTEX
8
0
10
4294
20
1160
0
VERTEX
8
0
10
4294
20
1200
0
VERTEX
8
0
10
4274
20
1200
0
SEQEND
0
POLYLINE
8
0
62
18
66
1
40
1
41
1
0
VERTEX
8
0
10
4334
20
1120
0
VERTEX
8
0
10
4314
20
1120
0
VERTEX
8
0
10
4314
20
1080
0
VERTEX
8
0
10
4334
20
1080
0
VERTEX
8
0
10
4334
20
1120
0
SEQEND
0
POLYLINE
8
0
62
14
66
1
40
1
41
1
0
VERTEX
8
0
10
4314
20
980
0
VERTEX
8
0
10
4274
20
980
0
VERTEX
8
0
10
4274
20
960
0
VERTEX
8
0
10
4294
20
960
0
VERTEX
8
0
10
4294
20
940
0
VERTEX
8
0
10
4314
20
940
0
VERTEX
8
0
10
4314
20
980
0
SEQEND
0
POLYLINE
8
0
62
14
66
1
40
1
41
1
0
VERTEX
8
0
10
4334
20
1060
0
VERTEX
8
0
10
4334
20
1020
0
VERTEX
8
0
10
4374
20
1020
0
VERTEX
8
0
10
4374
20
1040
0
VERTEX
8
0
10
4354
20
1040
0
VERTEX
8
0
10
4354
20
1060
0
VERTEX
8
0
10
4334
20
1060
0
SEQEND
0
POLYLINE
8
0
62
7
66
1
40
1
41
1
0
VERTEX
8
0
10
4674
20
1340
0
VERTEX
8
0
10
4674
20
1380
0
VERTEX
8
0
10
4654
20
1380
0
VERTEX
8
0
10
4654
20
1420
0
VERTEX
8
0
10
4614
20
1420
0
VERTEX
8
0
10
4614
20
1320
0
VERTEX
8
0
10
4634
20
1320
0
VERTEX
8
0
10
4634
20
1340
0
VERTEX
8
0
10
4674
20
1340
0
SEQEND
0
POLYLINE
8
0
62
18
66
1
40
1
41
1
0
VERTEX
8
0
10
4574
20
1400
0
VERTEX
8
0
10
4574
20
1340
0
VERTEX
8
0
10
4594
20
1340
0
VERTEX
8
0
10
4594
20
1320
0
VERTEX
8
0
10
4614
20
1320
0
VERTEX
8
0
10
4614
20
1420
0
VERTEX
8
0
10
4574
20
1420
0
VERTEX
8
0
10
4574
20
1400
0
SEQEND
0
POLYLINE
8
0
62
18
66
1
40
1
41
1
0
VERTEX
8
0
10
4574
20
1340
0
VERTEX
8
0
10
4574
20
1400
0
VERTEX
8
0
10
4554
20
1400
0
VERTEX
8
0
10
4554
20
1340
0
VERTEX
8
0
10
4554
20
1320
0
VERTEX
8
0
10
4534
20
1320
0
VERTEX
8
0
10
4534
20
1300
0
VERTEX
8
0
10
4574
20
1300
0
VERTEX
8
0
10
4574
20
1320
0
VERTEX
8
0
10
4594
20
1320
0
VERTEX
8
0
10
4594
20
1340
0
VERTEX
8
0
10
4574
20
1340
0
SEQEND
0
POLYLINE
8
0
62
7
66
1
40
1
41
1
0
VERTEX
8
0
10
4574
20
1400
0
VERTEX
8
0
10
4574
20
1420
0
VERTEX
8
0
10
4534
20
1420
0
VERTEX
8
0
10
4534
20
1400
0
VERTEX
8
0
10
4554
20
1400
0
VERTEX
8
0
10
4574
20
1400
0
SEQEND
0
POLYLINE
8
0
62
18
66
1
40
1
41
1
0
VERTEX
8
0
10
4474
20
1380
0
VERTEX
8
0
10
4494
20
1380
0
VERTEX
8
0
10
4514
20
1380
0
VERTEX
8
0
10
4514
20
1320
0
VERTEX
8
0
10
4514
20
1300
0
VERTEX
8
0
10
4534
20
1300
0
VERTEX
8
0
10
4534
20
1320
0
VERTEX
8
0
10
4554
20
1320
0
VERTEX
8
0
10
4554
20
1340
0
VERTEX
8
0
10
4534
20
1340
0
VERTEX
8
0
10
4534
20
1400
0
VERTEX
8
0
10
4474
20
1400
0
VERTEX
8
0
10
4474
20
1380
0
SEQEND
0
POLYLINE
8
0
62
16
66
1
40
1
41
1
0
VERTEX
8
0
10
4494
20
1380
0
VERTEX
8
0
10
4474
20
1380
0
VERTEX
8
0
10
4474
20
1360
0
VERTEX
8
0
10
4474
20
1320
0
VERTEX
8
0
10
4494
20
1320
0
VERTEX
8
0
10
4494
20
1380
0
SEQEND
0
POLYLINE
8
0
62
18
66
1
40
1
41
1
0
VERTEX
8
0
10
4554
20
1400
0
VERTEX
8
0
10
4534
20
1400
0
VERTEX
8
0
10
4534
20
1340
0
VERTEX
8
0
10
4554
20
1340
0
VERTEX
8
0
10
4554
20
1400
0
SEQEND
0
POLYLINE
8
0
62
16
66
1
40
1
41
1
0
VERTEX
8
0
10
4514
20
1380
0
VERTEX
8
0
10
4494
20
1380
0
VERTEX
8
0
10
4494
20
1320
0
VERTEX
8
0
10
4514
20
1320
0
VERTEX
8
0
10
4514
20
1380
0
SEQEND
0
POLYLINE
8
0
62
252
66
1
40
1
41
1
0
VERTEX
8
0
10
6034
20
2459
0
VERTEX
8
0
10
6014
20
2459
0
VERTEX
8
0
10
6014
20
2199
0
VERTEX
8
0
10
6014
20
2179
0
VERTEX
8
0
10
6034
20
2179
0
VERTEX
8
0
10
6034
20
2459
0
SEQEND
0
POLYLINE
8
0
62
255
66
1
40
1
41
1
0
VERTEX
8
0
10
6014
20
2459
0
VERTEX
8
0
10
5774
20
2459
0
VERTEX
8
0
10
5774
20
2199
0
VERTEX
8
0
10
6014
20
2199
0
VERTEX
8
0
10
6014
20
2459
0
SEQEND
0
POLYLINE
8
0
62
255
66
1
40
1
41
1
0
VERTEX
8
0
10
5774
20
2199
0
VERTEX
8
0
10
5774
20
2159
0
VERTEX
8
0
10
6014
20
2159
0
VERTEX
8
0
10
6014
20
2179
0
VERTEX
8
0
10
6014
20
2199
0
VERTEX
8
0
10
5774
20
2199
0
SEQEND
0
POLYLINE
8
0
62
255
66
1
40
1
41
1
0
VERTEX
8
0
10
5774
20
2119
0
VERTEX
8
0
10
5774
20
2099
0
VERTEX
8
0
10
5774
20
2079
0
VERTEX
8
0
10
6014
20
2079
0
VERTEX
8
0
10
6014
20
2119
0
VERTEX
8
0
10
5774
20
2119
0
SEQEND
0
POLYLINE
8
0
62
255
66
1
40
1
41
1
0
VERTEX
8
0
10
5774
20
2159
0
VERTEX
8
0
10
5774
20
2119
0
VERTEX
8
0
10
6014
20
2119
0
VERTEX
8
0
10
6014
20
2159
0
VERTEX
8
0
10
5774
20
2159
0
SEQEND
0
POLYLINE
8
0
62
253
66
1
40
1
41
1
0
VERTEX
8
0
10
5734
20
2099
0
VERTEX
8
0
10
5694
20
2099
0
VERTEX
8
0
10
5694
20
2079
0
VERTEX
8
0
10
5734
20
2079
0
VERTEX
8
0
10
5734
20
2099
0
SEQEND
0
POLYLINE
8
0
62
255
66
1
40
1
41
1
0
VERTEX
8
0
10
5734
20
2079
0
VERTEX
8
0
10
5694
20
2079
0
VERTEX
8
0
10
5694
20
2099
0
VERTEX
8
0
10
5654
20
2099
0
VERTEX
8
0
10
5654
20
2039
0
VERTEX
8
0
10
5654
20
2019
0
VERTEX
8
0
10
6194
20
2019
0
VERTEX
8
0
10
6194
20
2039
0
VERTEX
8
0
10
6194
20
2079
0
VERTEX
8
0
10
6034
20
2079
0
VERTEX
8
0
10
6014
20
2079
0
VERTEX
8
0
10
5774
20
2079
0
VERTEX
8
0
10
5734
20
2079
0
SEQEND
0
POLYLINE
8
0
62
251
66
1
40
1
41
1
0
VERTEX
8
0
10
5774
20
2099
0
VERTEX
8
0
10
5734
20
2099
0
VERTEX
8
0
10
5734
20
2079
0
VERTEX
8
0
10
5774
20
2079
0
VERTEX
8
0
10
5774
20
2099
0
SEQEND
0
POLYLINE
8
0
62
252
66
1
40
1
41
1
0
VERTEX
8
0
10
6014
20
2179
0
VERTEX
8
0
10
6014
20
2159
0
VERTEX
8
0
10
6014
20
2119
0
VERTEX
8
0
10
6034
20
2119
0
VERTEX
8
0
10
6034
20
2179
0
VERTEX
8
0
10
6014
20
2179
0
SEQEND
0
POLYLINE
8
0
62
252
66
1
40
1
41
1
0
VERTEX
8
0
10
6034
20
2119
0
VERTEX
8
0
10
6014
20
2119
0
VERTEX
8
0
10
6014
20
2079
0
VERTEX
8
0
10
6034
20
2079
0
VERTEX
8
0
10
6034
20
2119
0
SEQEND
0
POLYLINE
8
0
62
252
66
1
40
1
41
1
0
VERTEX
8
0
10
6194
20
2079
0
VERTEX
8
0
10
6194
20
2039
0
VERTEX
8
0
10
6214
20
2039
0
VERTEX
8
0
10
6214
20
2079
0
VERTEX
8
0
10
6194
20
2079
0
SEQEND
0
POLYLINE
8
0
62
252
66
1
40
1
41
1
0
VERTEX
8
0
10
6214
20
2039
0
VERTEX
8
0
10
6194
20
2039
0
VERTEX
8
0
10
6194
20
2019
0
VERTEX
8
0
10
6194
20
1999
0
VERTEX
8
0
10
6214
20
1999
0
VERTEX
8
0
10
6214
20
2039
0
SEQEND
0
POLYLINE
8
0
62
255
66
1
40
1
41
1
0
VERTEX
8
0
10
6194
20
1999
0
VERTEX
8
0
10
6194
20
2019
0
VERTEX
8
0
10
5654
20
2019
0
VERTEX
8
0
10
5654
20
1999
0
VERTEX
8
0
10
6194
20
1999
0
SEQEND
0
POLYLINE
8
0
62
252
66
1
40
1
41
1
0
VERTEX
8
0
10
6214
20
1999
0
VERTEX
8
0
10
6194
20
1999
0
VERTEX
8
0
10
6194
20
1979
0
VERTEX
8
0
10
6194
20
1959
0
VERTEX
8
0
10
6214
20
1959
0
VERTEX
8
0
10
6214
20
1999
0
SEQEND
0
POLYLINE
8
0
62
252
66
1
40
1
41
1
0
VERTEX
8
0
10
6214
20
1959
0
VERTEX
8
0
10
6194
20
1959
0
VERTEX
8
0
10
6194
20
1919
0
VERTEX
8
0
10
6214
20
1919
0
VERTEX
8
0
10
6214
20
1959
0
SEQEND
0
POLYLINE
8
0
62
254
66
1
40
1
41
1
0
VERTEX
8
0
10
6194
20
1959
0
VERTEX
8
0
10
6194
20
1979
0
VERTEX
8
0
10
5654
20
1979
0
VERTEX
8
0
10
5654
20
1959
0
VERTEX
8
0
10
6194
20
1959
0
SEQEND
0
POLYLINE
8
0
62
255
66
1
40
1
41
1
0
VERTEX
8
0
10
6194
20
1979
0
VERTEX
8
0
10
6194
20
1999
0
VERTEX
8
0
10
5654
20
1999
0
VERTEX
8
0
10
5654
20
1979
0
VERTEX
8
0
10
6194
20
1979
0
SEQEND
0
POLYLINE
8
0
62
15
66
1
40
1
41
1
0
VERTEX
8
0
10
4954
20
2219
0
VERTEX
8
0
10
4874
20
2219
0
VERTEX
8
0
10
4874
20
2199
0
VERTEX
8
0
10
4954
20
2199
0
VERTEX
8
0
10
4954
20
2219
0
SEQEND
0
POLYLINE
8
0
62
19
66
1
40
1
41
1
0
VERTEX
8
0
10
5054
20
2219
0
VERTEX
8
0
10
5014
20
2219
0
VERTEX
8
0
10
5014
20
2199
0
VERTEX
8
0
10
5034
20
2199
0
VERTEX
8
0
10
5054
20
2199
0
VERTEX
8
0
10
5054
20
2219
0
SEQEND
0
POLYLINE
8
0
62
17
66
1
40
1
41
1
0
VERTEX
8
0
10
5014
20
2219
0
VERTEX
8
0
10
4954
20
2219
0
VERTEX
8
0
10
4954
20
2199
0
VERTEX
8
0
10
4994
20
2199
0
VERTEX
8
0
10
5014
20
2199
0
VERTEX
8
0
10
5014
20
2219
0
SEQEND
0
POLYLINE
8
0
62
15
66
1
40
1
41
1
0
VERTEX
8
0
10
5054
20
2199
0
VERTEX
8
0
10
5054
20
2179
0
VERTEX
8
0
10
5074
20
2179
0
VERTEX
8
0
10
5114
20
2179
0
VERTEX
8
0
10
5114
20
2199
0
VERTEX
8
0
10
5054
20
2199
0
SEQEND
0
POLYLINE
8
0
62
13
66
1
40
1
41
1
0
VERTEX
8
0
10
5034
20
2199
0
VERTEX
8
0
10
5014
20
2199
0
VERTEX
8
0
10
4994
20
2199
0
VERTEX
8
0
10
4994
20
2179
0
VERTEX
8
0
10
5034
20
2179
0
VERTEX
8
0
10
5034
20
2199
0
SEQEND
0
POLYLINE
8
0
62
13
66
1
40
1
41
1
0
VERTEX
8
0
10
4994
20
2119
0
VERTEX
8
0
10
4994
20
2139
0
VERTEX
8
0
10
4954
20
2139
0
VERTEX
8
0
10
4954
20
2119
0
VERTEX
8
0
10
4974
20
2119
0
VERTEX
8
0
10
4994
20
2119
0
SEQEND
0
POLYLINE
8
0
62
15
66
1
40
1
41
1
0
VERTEX
8
0
10
4994
20
2119
0
VERTEX
8
0
10
4974
20
2119
0
VERTEX
8
0
10
4974
20
2099
0
VERTEX
8
0
10
5014
20
2099
0
VERTEX
8
0
10
5014
20
2119
0
VERTEX
8
0
10
4994
20
2119
0
SEQEND
0
POLYLINE
8
0
62
29
66
1
40
1
41
1
0
VERTEX
8
0
10
4974
20
2099
0
VERTEX
8
0
10
4974
20
2119
0
VERTEX
8
0
10
4954
20
2119
0
VERTEX
8
0
10
4934
20
2119
0
VERTEX
8
0
10
4894
20
2119
0
VERTEX
8
0
10
4894
20
2099
0
VERTEX
8
0
10
4974
20
2099
0
SEQEND
0
POLYLINE
8
0
62
13
66
1
40
1
41
1
0
VERTEX
8
0
10
5014
20
2099
0
VERTEX
8
0
10
5054
20
2099
0
VERTEX
8
0
10
5074
20
2099
0
VERTEX
8
0
10
5074
20
2119
0
VERTEX
8
0
10
5014
20
2119
0
VERTEX
8
0
10
5014
20
2099
0
SEQEND
0
POLYLINE
8
0
62
13
66
1
40
1
41
1
0
VERTEX
8
0
10
4894
20
2139
0
VERTEX
8
0
10
4894
20
2119
0
VERTEX
8
0
10
4934
20
2119
0
VERTEX
8
0
10
4934
20
2139
0
VERTEX
8
0
10
4894
20
2139
0
SEQEND
0
POLYLINE
8
0
62
15
66
1
40
1
41
1
0
VERTEX
8
0
10
5054
20
2099
0
VERTEX
8
0
10
5054
20
2079
0
VERTEX
8
0
10
5094
20
2079
0
VERTEX
8
0
10
5114
20
2079
0
VERTEX
8
0
10
5114
20
2099
0
VERTEX
8
0
10
5074
20
2099
0
VERTEX
8
0
10
5054
20
2099
0
SEQEND
0
POLYLINE
8
0
62
7
66
1
40
1
41
1
0
VERTEX
8
0
10
5174
20
2159
0
VERTEX
8
0
10
5214
20
2159
0
VERTEX
8
0
10
5214
20
2179
0
VERTEX
8
0
10
5174
20
2179
0
VERTEX
8
0
10
5174
20
2159
0
SEQEND
0
POLYLINE
8
0
62
15
66
1
40
1
41
1
0
VERTEX
8
0
10
5214
20
2159
0
VERTEX
8
0
10
5174
20
2159
0
VERTEX
8
0
10
5174
20
2139
0
VERTEX
8
0
10
5214
20
2139
0
VERTEX
8
0
10
5214
20
2159
0
SEQEND
0
POLYLINE
8
0
62
15
66
1
40
1
41
1
0
VERTEX
8
0
10
5174
20
2159
0
VERTEX
8
0
10
5174
20
2179
0
VERTEX
8
0
10
5134
20
2179
0
VERTEX
8
0
10
5134
20
2159
0
VERTEX
8
0
10
5174
20
2159
0
SEQEND
0
POLYLINE
8
0
62
15
66
1
40
1
41
1
0
VERTEX
8
0
10
5214
20
2139
0
VERTEX
8
0
10
5214
20
2119
0
VERTEX
8
0
10
5234
20
2119
0
VERTEX
8
0
10
5254
20
2119
0
VERTEX
8
0
10
5254
20
2139
0
VERTEX
8
0
10
5214
20
2139
0
SEQEND
0
POLYLINE
8
0
62
13
66
1
40
1
41
1
0
VERTEX
8
0
10
5234
20
2119
0
VERTEX
8
0
10
5234
20
2099
0
VERTEX
8
0
10
5274
20
2099
0
VERTEX
8
0
10
5274
20
2119
0
VERTEX
8
0
10
5254
20
2119
0
VERTEX
8
0
10
5234
20
2119
0
SEQEND
0
POLYLINE
8
0
62
13
66
1
40
1
41
1
0
VERTEX
8
0
10
5134
20
2159
0
VERTEX
8
0
10
5134
20
2179
0
VERTEX
8
0
10
5114
20
2179
0
VERTEX
8
0
10
5074
20
2179
0
VERTEX
8
0
10
5074
20
2159
0
VERTEX
8
0
10
5134
20
2159
0
SEQEND
0
POLYLINE
8
0
62
19
66
1
40
1
41
1
0
VERTEX
8
0
10
5134
20
2079
0
VERTEX
8
0
10
5114
20
2079
0
VERTEX
8
0
10
5094
20
2079
0
VERTEX
8
0
10
5094
20
2059
0
VERTEX
8
0
10
5134
20
2059
0
VERTEX
8
0
10
5134
20
2079
0
SEQEND
0
POLYLINE
8
0
62
17
66
1
40
1
41
1
0
VERTEX
8
0
10
5154
20
2059
0
VERTEX
8
0
10
5154
20
2039
0
VERTEX
8
0
10
5174
20
2039
0
VERTEX
8
0
10
5194
20
2039
0
VERTEX
8
0
10
5194
20
2059
0
VERTEX
8
0
10
5154
20
2059
0
SEQEND
0
POLYLINE
8
0
62
19
66
1
40
1
41
1
0
VERTEX
8
0
10
5194
20
2039
0
VERTEX
8
0
10
5174
20
2039
0
VERTEX
8
0
10
5174
20
2019
0
VERTEX
8
0
10
5214
20
2019
0
VERTEX
8
0
10
5214
20
2039
0
VERTEX
8
0
10
5194
20
2039
0
SEQEND
0
POLYLINE
8
0
62
19
66
1
40
1
41
1
0
VERTEX
8
0
10
5214
20
2019
0
VERTEX
8
0
10
5214
20
1999
0
VERTEX
8
0
10
5254
20
1999
0
VERTEX
8
0
10
5254
20
2019
0
VERTEX
8
0
10
5214
20
2019
0
SEQEND
0
POLYLINE
8
0
62
15
66
1
40
1
41
1
0
VERTEX
8
0
10
5314
20
2099
0
VERTEX
8
0
10
5274
20
2099
0
VERTEX
8
0
10
5274
20
2079
0
VERTEX
8
0
10
5314
20
2079
0
VERTEX
8
0
10
5314
20
2099
0
SEQEND
0
POLYLINE
8
0
62
15
66
1
40
1
41
1
0
VERTEX
8
0
10
5334
20
2059
0
VERTEX
8
0
10
5334
20
2039
0
VERTEX
8
0
10
5374
20
2039
0
VERTEX
8
0
10
5374
20
2059
0
VERTEX
8
0
10
5354
20
2059
0
VERTEX
8
0
10
5354
20
2079
0
VERTEX
8
0
10
5314
20
2079
0
VERTEX
8
0
10
5314
20
2059
0
VERTEX
8
0
10
5334
20
2059
0
SEQEND
0
POLYLINE
8
0
62
19
66
1
40
1
41
1
0
VERTEX
8
0
10
5274
20
1959
0
VERTEX
8
0
10
5314
20
1959
0
VERTEX
8
0
10
5314
20
1979
0
VERTEX
8
0
10
5274
20
1979
0
VERTEX
8
0
10
5274
20
1959
0
SEQEND
0
POLYLINE
8
0
62
13
66
1
40
1
41
1
0
VERTEX
8
0
10
5394
20
2039
0
VERTEX
8
0
10
5374
20
2039
0
VERTEX
8
0
10
5374
20
1999
0
VERTEX
8
0
10
5414
20
1999
0
VERTEX
8
0
10
5414
20
2019
0
VERTEX
8
0
10
5394
20
2019
0
VERTEX
8
0
10
5394
20
2039
0
SEQEND
0
POLYLINE
8
0
62
8
66
1
40
1
41
1
0
VERTEX
8
0
10
5654
20
2039
0
VERTEX
8
0
10
5634
20
2039
0
VERTEX
8
0
10
5634
20
1979
0
VERTEX
8
0
10
5654
20
1979
0
VERTEX
8
0
10
5654
20
1999
0
VERTEX
8
0
10
5654
20
2019
0
VERTEX
8
0
10
5654
20
2039
0
SEQEND
0
POLYLINE
8
0
62
253
66
1
40
1
41
1
0
VERTEX
8
0
10
5654
20
1959
0
VERTEX
8
0
10
5654
20
1979
0
VERTEX
8
0
10
5634
20
1979
0
VERTEX
8
0
10
5634
20
1939
0
VERTEX
8
0
10
5654
20
1939
0
VERTEX
8
0
10
5654
20
1959
0
SEQEND
0
POLYLINE
8
0
62
13
66
1
40
1
41
1
0
VERTEX
8
0
10
5474
20
1959
0
VERTEX
8
0
10
5454
20
1959
0
VERTEX
8
0
10
5454
20
1919
0
VERTEX
8
0
10
5494
20
1919
0
VERTEX
8
0
10
5494
20
1939
0
VERTEX
8
0
10
5474
20
1939
0
VERTEX
8
0
10
5474
20
1959
0
SEQEND
0
POLYLINE
8
0
62
254
66
1
40
1
41
1
0
VERTEX
8
0
10
5634
20
1919
0
VERTEX
8
0
10
5634
20
1899
0
VERTEX
8
0
10
5634
20
1879
0
VERTEX
8
0
10
6194
20
1879
0
VERTEX
8
0
10
6194
20
1919
0
VERTEX
8
0
10
5634
20
1919
0
SEQEND
0
POLYLINE
8
0
62
254
66
1
40
1
41
1
0
VERTEX
8
0
10
5634
20
1939
0
VERTEX
8
0
10
5634
20
1919
0
VERTEX
8
0
10
6194
20
1919
0
VERTEX
8
0
10
6194
20
1959
0
VERTEX
8
0
10
5654
20
1959
0
VERTEX
8
0
10
5654
20
1939
0
VERTEX
8
0
10
5634
20
1939
0
SEQEND
0
POLYLINE
8
0
62
47
66
1
40
1
41
1
0
VERTEX
8
0
10
5614
20
1859
0
VERTEX
8
0
10
5614
20
1839
0
VERTEX
8
0
10
5774
20
1839
0
VERTEX
8
0
10
5774
20
1859
0
VERTEX
8
0
10
5634
20
1859
0
VERTEX
8
0
10
5614
20
1859
0
SEQEND
0
POLYLINE
8
0
62
254
66
1
40
1
41
1
0
VERTEX
8
0
10
5634
20
1879
0
VERTEX
8
0
10
5634
20
1859
0
VERTEX
8
0
10
5774
20
1859
0
VERTEX
8
0
10
6014
20
1859
0
VERTEX
8
0
10
6034
20
1859
0
VERTEX
8
0
10
6194
20
1859
0
VERTEX
8
0
10
6194
20
1879
0
VERTEX
8
0
10
5634
20
1879
0
SEQEND
0
POLYLINE
8
0
62
8
66
1
40
1
41
1
0
VERTEX
8
0
10
5634
20
1859
0
VERTEX
8
0
10
5634
20
1879
0
VERTEX
8
0
10
5634
20
1899
0
VERTEX
8
0
10
5614
20
1899
0
VERTEX
8
0
10
5614
20
1859
0
VERTEX
8
0
10
5634
20
1859
0
SEQEND
0
POLYLINE
8
0
62
19
66
1
40
1
41
1
0
VERTEX
8
0
10
5494
20
1919
0
VERTEX
8
0
10
5494
20
1899
0
VERTEX
8
0
10
5514
20
1899
0
VERTEX
8
0
10
5514
20
1879
0
VERTEX
8
0
10
5534
20
1879
0
VERTEX
8
0
10
5534
20
1919
0
VERTEX
8
0
10
5494
20
1919
0
SEQEND
0
POLYLINE
8
0
62
19
66
1
40
1
41
1
0
VERTEX
8
0
10
5534
20
1839
0
VERTEX
8
0
10
5554
20
1839
0
VERTEX
8
0
10
5554
20
1819
0
VERTEX
8
0
10
5574
20
1819
0
VERTEX
8
0
10
5574
20
1859
0
VERTEX
8
0
10
5534
20
1859
0
VERTEX
8
0
10
5534
20
1839
0
SEQEND
0
POLYLINE
8
0
62
15
66
1
40
1
41
1
0
VERTEX
8
0
10
5474
20
1779
0
VERTEX
8
0
10
5474
20
1819
0
VERTEX
8
0
10
5454
20
1819
0
VERTEX
8
0
10
5454
20
1779
0
VERTEX
8
0
10
5474
20
1779
0
SEQEND
0
POLYLINE
8
0
62
15
66
1
40
1
41
1
0
VERTEX
8
0
10
5494
20
1779
0
VERTEX
8
0
10
5474
20
1779
0
VERTEX
8
0
10
5474
20
1739
0
VERTEX
8
0
10
5494
20
1739
0
VERTEX
8
0
10
5494
20
1779
0
SEQEND
0
POLYLINE
8
0
62
15
66
1
40
1
41
1
0
VERTEX
8
0
10
5514
20
1739
0
VERTEX
8
0
10
5494
20
1739
0
VERTEX
8
0
10
5494
20
1699
0
VERTEX
8
0
10
5514
20
1699
0
VERTEX
8
0
10
5514
20
1739
0
SEQEND
0
POLYLINE
8
0
62
17
66
1
40
1
41
1
0
VERTEX
8
0
10
5594
20
1799
0
VERTEX
8
0
10
5574
20
1799
0
VERTEX
8
0
10
5574
20
1759
0
VERTEX
8
0
10
5594
20
1759
0
VERTEX
8
0
10
5594
20
1799
0
SEQEND
0
POLYLINE
8
0
62
17
66
1
40
1
41
1
0
VERTEX
8
0
10
5614
20
1719
0
VERTEX
8
0
10
5614
20
1759
0
VERTEX
8
0
10
5594
20
1759
0
VERTEX
8
0
10
5594
20
1719
0
VERTEX
8
0
10
5614
20
1719
0
SEQEND
0
POLYLINE
8
0
62
17
66
1
40
1
41
1
0
VERTEX
8
0
10
5394
20
1879
0
VERTEX
8
0
10
5394
20
1839
0
VERTEX
8
0
10
5434
20
1839
0
VERTEX
8
0
10
5434
20
1859
0
VERTEX
8
0
10
5414
20
1859
0
VERTEX
8
0
10
5414
20
1879
0
VERTEX
8
0
10
5394
20
1879
0
SEQEND
0
POLYLINE
8
0
62
13
66
1
40
1
41
1
0
VERTEX
8
0
10
5414
20
1639
0
VERTEX
8
0
10
5414
20
1619
0
VERTEX
8
0
10
5434
20
1619
0
VERTEX
8
0
10
5474
20
1619
0
VERTEX
8
0
10
5474
20
1599
0
VERTEX
8
0
10
5494
20
1599
0
VERTEX
8
0
10
5494
20
1639
0
VERTEX
8
0
10
5494
20
1659
0
VERTEX
8
0
10
5454
20
1659
0
VERTEX
8
0
10
5454
20
1639
0
VERTEX
8
0
10
5414
20
1639
0
SEQEND
0
POLYLINE
8
0
62
15
66
1
40
1
41
1
0
VERTEX
8
0
10
5414
20
1619
0
VERTEX
8
0
10
5414
20
1639
0
VERTEX
8
0
10
5394
20
1639
0
VERTEX
8
0
10
5394
20
1619
0
VERTEX
8
0
10
5354
20
1619
0
VERTEX
8
0
10
5334
20
1619
0
VERTEX
8
0
10
5334
20
1599
0
VERTEX
8
0
10
5374
20
1599
0
VERTEX
8
0
10
5394
20
1599
0
VERTEX
8
0
10
5414
20
1599
0
VERTEX
8
0
10
5434
20
1599
0
VERTEX
8
0
10
5434
20
1619
0
VERTEX
8
0
10
5414
20
1619
0
SEQEND
0
POLYLINE
8
0
62
17
66
1
40
1
41
1
0
VERTEX
8
0
10
5394
20
1619
0
VERTEX
8
0
10
5394
20
1639
0
VERTEX
8
0
10
5354
20
1639
0
VERTEX
8
0
10
5354
20
1619
0
VERTEX
8
0
10
5394
20
1619
0
SEQEND
0
POLYLINE
8
0
62
14
66
1
40
1
41
1
0
VERTEX
8
0
10
5394
20
1599
0
VERTEX
8
0
10
5374
20
1599
0
VERTEX
8
0
10
5374
20
1579
0
VERTEX
8
0
10
5374
20
1539
0
VERTEX
8
0
10
5394
20
1539
0
VERTEX
8
0
10
5394
20
1559
0
VERTEX
8
0
10
5394
20
1599
0
SEQEND
0
POLYLINE
8
0
62
14
66
1
40
1
41
1
0
VERTEX
8
0
10
5414
20
1599
0
VERTEX
8
0
10
5394
20
1599
0
VERTEX
8
0
10
5394
20
1559
0
VERTEX
8
0
10
5414
20
1559
0
VERTEX
8
0
10
5414
20
1599
0
SEQEND
0
POLYLINE
8
0
62
13
66
1
40
1
41
1
0
VERTEX
8
0
10
5434
20
1619
0
VERTEX
8
0
10
5434
20
1599
0
VERTEX
8
0
10
5474
20
1599
0
VERTEX
8
0
10
5474
20
1619
0
VERTEX
8
0
10
5434
20
1619
0
SEQEND
0
POLYLINE
8
0
62
19
66
1
40
1
41
1
0
VERTEX
8
0
10
5414
20
1639
0
VERTEX
8
0
10
5454
20
1639
0
VERTEX
8
0
10
5454
20
1659
0
VERTEX
8
0
10
5414
20
1659
0
VERTEX
8
0
10
5414
20
1639
0
SEQEND
0
POLYLINE
8
0
62
14
66
1
40
1
41
1
0
VERTEX
8
0
10
5434
20
1599
0
VERTEX
8
0
10
5414
20
1599
0
VERTEX
8
0
10
5414
20
1559
0
VERTEX
8
0
10
5394
20
1559
0
VERTEX
8
0
10
5394
20
1539
0
VERTEX
8
0
10
5414
20
1539
0
VERTEX
8
0
10
5434
20
1539
0
VERTEX
8
0
10
5434
20
1559
0
VERTEX
8
0
10
5434
20
1599
0
SEQEND
0
POLYLINE
8
0
62
16
66
1
40
1
41
1
0
VERTEX
8
0
10
5294
20
1599
0
VERTEX
8
0
10
5274
20
1599
0
VERTEX
8
0
10
5274
20
1579
0
VERTEX
8
0
10
5294
20
1579
0
VERTEX
8
0
10
5314
20
1579
0
VERTEX
8
0
10
5334
20
1579
0
VERTEX
8
0
10
5334
20
1599
0
VERTEX
8
0
10
5294
20
1599
0
SEQEND
0
POLYLINE
8
0
62
17
66
1
40
1
41
1
0
VERTEX
8
0
10
5294
20
1619
0
VERTEX
8
0
10
5294
20
1599
0
VERTEX
8
0
10
5334
20
1599
0
VERTEX
8
0
10
5334
20
1619
0
VERTEX
8
0
10
5294
20
1619
0
SEQEND
0
POLYLINE
8
0
62
14
66
1
40
1
41
1
0
VERTEX
8
0
10
5354
20
1579
0
VERTEX
8
0
10
5354
20
1539
0
VERTEX
8
0
10
5374
20
1539
0
VERTEX
8
0
10
5374
20
1579
0
VERTEX
8
0
10
5354
20
1579
0
SEQEND
0
POLYLINE
8
0
62
16
66
1
40
1
41
1
0
VERTEX
8
0
10
5354
20
1539
0
VERTEX
8
0
10
5354
20
1579
0
VERTEX
8
0
10
5334
20
1579
0
VERTEX
8
0
10
5334
20
1519
0
VERTEX
8
0
10
5374
20
1519
0
VERTEX
8
0
10
5374
20
1539
0
VERTEX
8
0
10
5354
20
1539
0
SEQEND
0
POLYLINE
8
0
62
14
66
1
40
1
41
1
0
VERTEX
8
0
10
5334
20
1579
0
VERTEX
8
0
10
5354
20
1579
0
VERTEX
8
0
10
5374
20
1579
0
VERTEX
8
0
10
5374
20
1599
0
VERTEX
8
0
10
5334
20
1599
0
VERTEX
8
0
10
5334
20
1579
0
SEQEND
0
POLYLINE
8
0
62
16
66
1
40
1
41
1
0
VERTEX
8
0
10
5294
20
1579
0
VERTEX
8
0
10
5274
20
1579
0
VERTEX
8
0
10
5274
20
1519
0
VERTEX
8
0
10
5294
20
1519
0
VERTEX
8
0
10
5294
20
1579
0
SEQEND
0
POLYLINE
8
0
62
16
66
1
40
1
41
1
0
VERTEX
8
0
10
5314
20
1579
0
VERTEX
8
0
10
5294
20
1579
0
VERTEX
8
0
10
5294
20
1519
0
VERTEX
8
0
10
5314
20
1519
0
VERTEX
8
0
10
5314
20
1579
0
SEQEND
0
POLYLINE
8
0
62
18
66
1
40
1
41
1
0
VERTEX
8
0
10
5294
20
1519
0
VERTEX
8
0
10
5294
20
1500
0
VERTEX
8
0
10
5334
20
1500
0
VERTEX
8
0
10
5334
20
1519
0
VERTEX
8
0
10
5314
20
1519
0
VERTEX
8
0
10
5294
20
1519
0
SEQEND
0
POLYLINE
8
0
62
18
66
1
40
1
41
1
0
VERTEX
8
0
10
5294
20
1500
0
VERTEX
8
0
10
5294
20
1519
0
VERTEX
8
0
10
5274
20
1519
0
VERTEX
8
0
10
5274
20
1579
0
VERTEX
8
0
10
5234
20
1579
0
VERTEX
8
0
10
5214
20
1579
0
VERTEX
8
0
10
5214
20
1559
0
VERTEX
8
0
10
5234
20
1559
0
VERTEX
8
0
10
5234
20
1500
0
VERTEX
8
0
10
5254
20
1500
0
VERTEX
8
0
10
5294
20
1500
0
SEQEND
0
POLYLINE
8
0
62
16
66
1
40
1
41
1
0
VERTEX
8
0
10
5314
20
1579
0
VERTEX
8
0
10
5314
20
1519
0
VERTEX
8
0
10
5334
20
1519
0
VERTEX
8
0
10
5334
20
1579
0
VERTEX
8
0
10
5314
20
1579
0
SEQEND
0
POLYLINE
8
0
62
12
66
1
40
1
41
1
0
VERTEX
8
0
10
5454
20
1579
0
VERTEX
8
0
10
5454
20
1559
0
VERTEX
8
0
10
5474
20
1559
0
VERTEX
8
0
10
5514
20
1559
0
VERTEX
8
0
10
5514
20
1579
0
VERTEX
8
0
10
5494
20
1579
0
VERTEX
8
0
10
5494
20
1599
0
VERTEX
8
0
10
5474
20
1599
0
VERTEX
8
0
10
5474
20
1579
0
VERTEX
8
0
10
5454
20
1579
0
SEQEND
0
POLYLINE
8
0
62
12
66
1
40
1
41
1
0
VERTEX
8
0
10
5454
20
1559
0
VERTEX
8
0
10
5454
20
1579
0
VERTEX
8
0
10
5474
20
1579
0
VERTEX
8
0
10
5474
20
1599
0
VERTEX
8
0
10
5434
20
1599
0
VERTEX
8
0
10
5434
20
1559
0
VERTEX
8
0
10
5454
20
1559
0
SEQEND
0
POLYLINE
8
0
62
16
66
1
40
1
41
1
0
VERTEX
8
0
10
5434
20
1559
0
VERTEX
8
0
10
5434
20
1539
0
VERTEX
8
0
10
5474
20
1539
0
VERTEX
8
0
10
5474
20
1559
0
VERTEX
8
0
10
5454
20
1559
0
VERTEX
8
0
10
5434
20
1559
0
SEQEND
0
POLYLINE
8
0
62
18
66
1
40
1
41
1
0
VERTEX
8
0
10
5414
20
1539
0
VERTEX
8
0
10
5394
20
1539
0
VERTEX
8
0
10
5374
20
1539
0
VERTEX
8
0
10
5374
20
1519
0
VERTEX
8
0
10
5414
20
1519
0
VERTEX
8
0
10
5414
20
1539
0
SEQEND
0
POLYLINE
8
0
62
28
66
1
40
1
41
1
0
VERTEX
8
0
10
5274
20
1579
0
VERTEX
8
0
10
5274
20
1599
0
VERTEX
8
0
10
5234
20
1599
0
VERTEX
8
0
10
5234
20
1579
0
VERTEX
8
0
10
5274
20
1579
0
SEQEND
0
POLYLINE
8
0
62
13
66
1
40
1
41
1
0
VERTEX
8
0
10
5614
20
1699
0
VERTEX
8
0
10
5614
20
1679
0
VERTEX
8
0
10
5634
20
1679
0
VERTEX
8
0
10
5674
20
1679
0
VERTEX
8
0
10
5694
20
1679
0
VERTEX
8
0
10
5694
20
1699
0
VERTEX
8
0
10
5674
20
1699
0
VERTEX
8
0
10
5634
20
1699
0
VERTEX
8
0
10
5614
20
1699
0
SEQEND
0
POLYLINE
8
0
62
15
66
1
40
1
41
1
0
VERTEX
8
0
10
5654
20
1619
0
VERTEX
8
0
10
5654
20
1599
0
VERTEX
8
0
10
5694
20
1599
0
VERTEX
8
0
10
5694
20
1619
0
VERTEX
8
0
10
5674
20
1619
0
VERTEX
8
0
10
5654
20
1619
0
SEQEND
0
POLYLINE
8
0
62
13
66
1
40
1
41
1
0
VERTEX
8
0
10
5654
20
1599
0
VERTEX
8
0
10
5654
20
1619
0
VERTEX
8
0
10
5674
20
1619
0
VERTEX
8
0
10
5674
20
1639
0
VERTEX
8
0
10
5634
20
1639
0
VERTEX
8
0
10
5634
20
1619
0
VERTEX
8
0
10
5634
20
1599
0
VERTEX
8
0
10
5654
20
1599
0
SEQEND
0
POLYLINE
8
0
62
14
66
1
40
1
41
1
0
VERTEX
8
0
10
5654
20
1599
0
VERTEX
8
0
10
5634
20
1599
0
VERTEX
8
0
10
5634
20
1579
0
VERTEX
8
0
10
5634
20
1539
0
VERTEX
8
0
10
5634
20
1500
0
VERTEX
8
0
10
5654
20
1500
0
VERTEX
8
0
10
5654
20
1559
0
VERTEX
8
0
10
5654
20
1599
0
SEQEND
0
POLYLINE
8
0
62
13
66
1
40
1
41
1
0
VERTEX
8
0
10
5634
20
1599
0
VERTEX
8
0
10
5634
20
1619
0
VERTEX
8
0
10
5534
20
1619
0
VERTEX
8
0
10
5534
20
1599
0
VERTEX
8
0
10
5594
20
1599
0
VERTEX
8
0
10
5634
20
1599
0
SEQEND
0
POLYLINE
8
0
62
22
66
1
40
1
41
1
0
VERTEX
8
0
10
5634
20
1599
0
VERTEX
8
0
10
5594
20
1599
0
VERTEX
8
0
10
5594
20
1579
0
VERTEX
8
0
10
5634
20
1579
0
VERTEX
8
0
10
5634
20
1599
0
SEQEND
0
POLYLINE
8
0
62
13
66
1
40
1
41
1
0
VERTEX
8
0
10
5614
20
1679
0
VERTEX
8
0
10
5614
20
1639
0
VERTEX
8
0
10
5634
20
1639
0
VERTEX
8
0
10
5634
20
1679
0
VERTEX
8
0
10
5614
20
1679
0
SEQEND
0
POLYLINE
8
0
62
13
66
1
40
1
41
1
0
VERTEX
8
0
10
5634
20
1679
0
VERTEX
8
0
10
5634
20
1639
0
VERTEX
8
0
10
5674
20
1639
0
VERTEX
8
0
10
5674
20
1679
0
VERTEX
8
0
10
5634
20
1679
0
SEQEND
0
POLYLINE
8
0
62
13
66
1
40
1
41
1
0
VERTEX
8
0
10
5534
20
1659
0
VERTEX
8
0
10
5534
20
1699
0
VERTEX
8
0
10
5514
20
1699
0
VERTEX
8
0
10
5514
20
1659
0
VERTEX
8
0
10
5534
20
1659
0
SEQEND
0
POLYLINE
8
0
62
19
66
1
40
1
41
1
0
VERTEX
8
0
10
5494
20
1699
0
VERTEX
8
0
10
5494
20
1659
0
VERTEX
8
0
10
5514
20
1659
0
VERTEX
8
0
10
5514
20
1699
0
VERTEX
8
0
10
5494
20
1699
0
SEQEND
0
POLYLINE
8
0
62
13
66
1
40
1
41
1
0
VERTEX
8
0
10
5494
20
1639
0
VERTEX
8
0
10
5494
20
1599
0
VERTEX
8
0
10
5534
20
1599
0
VERTEX
8
0
10
5534
20
1619
0
VERTEX
8
0
10
5534
20
1639
0
VERTEX
8
0
10
5494
20
1639
0
SEQEND
0
POLYLINE
8
0
62
12
66
1
40
1
41
1
0
VERTEX
8
0
10
5534
20
1599
0
VERTEX
8
0
10
5494
20
1599
0
VERTEX
8
0
10
5494
20
1579
0
VERTEX
8
0
10
5514
20
1579
0
VERTEX
8
0
10
5534
20
1579
0
VERTEX
8
0
10
5534
20
1599
0
SEQEND
0
POLYLINE
8
0
62
12
66
1
40
1
41
1
0
VERTEX
8
0
10
5554
20
1559
0
VERTEX
8
0
10
5554
20
1539
0
VERTEX
8
0
10
5574
20
1539
0
VERTEX
8
0
10
5574
20
1559
0
VERTEX
8
0
10
5614
20
1559
0
VERTEX
8
0
10
5614
20
1539
0
VERTEX
8
0
10
5634
20
1539
0
VERTEX
8
0
10
5634
20
1579
0
VERTEX
8
0
10
5594
20
1579
0
VERTEX
8
0
10
5554
20
1579
0
VERTEX
8
0
10
5554
20
1559
0
SEQEND
0
POLYLINE
8
0
62
18
66
1
40
1
41
1
0
VERTEX
8
0
10
5554
20
1539
0
VERTEX
8
0
10
5554
20
1559
0
VERTEX
8
0
10
5534
20
1559
0
VERTEX
8
0
10
5534
20
1480
0
VERTEX
8
0
10
5554
20
1480
0
VERTEX
8
0
10
5554
20
1539
0
SEQEND
0
POLYLINE
8
0
62
14
66
1
40
1
41
1
0
VERTEX
8
0
10
5554
20
1559
0
VERTEX
8
0
10
5554
20
1579
0
VERTEX
8
0
10
5534
20
1579
0
VERTEX
8
0
10
5514
20
1579
0
VERTEX
8
0
10
5514
20
1559
0
VERTEX
8
0
10
5534
20
1559
0
VERTEX
8
0
10
5554
20
1559
0
SEQEND
0
POLYLINE
8
0
62
12
66
1
40
1
41
1
0
VERTEX
8
0
10
5534
20
1579
0
VERTEX
8
0
10
5554
20
1579
0
VERTEX
8
0
10
5594
20
1579
0
VERTEX
8
0
10
5594
20
1599
0
VERTEX
8
0
10
5534
20
1599
0
VERTEX
8
0
10
5534
20
1579
0
SEQEND
0
POLYLINE
8
0
62
12
66
1
40
1
41
1
0
VERTEX
8
0
10
5554
20
1539
0
VERTEX
8
0
10
5554
20
1480
0
VERTEX
8
0
10
5554
20
1460
0
VERTEX
8
0
10
5574
20
1460
0
VERTEX
8
0
10
5574
20
1539
0
VERTEX
8
0
10
5554
20
1539
0
SEQEND
0
POLYLINE
8
0
62
12
66
1
40
1
41
1
0
VERTEX
8
0
10
5614
20
1559
0
VERTEX
8
0
10
5574
20
1559
0
VERTEX
8
0
10
5574
20
1539
0
VERTEX
8
0
10
5574
20
1460
0
VERTEX
8
0
10
5574
20
1420
0
VERTEX
8
0
10
5574
20
1340
0
VERTEX
8
0
10
5554
20
1340
0
VERTEX
8
0
10
5554
20
1300
0
VERTEX
8
0
10
5554
20
1260
0
VERTEX
8
0
10
5534
20
1260
0
VERTEX
8
0
10
5534
20
1220
0
VERTEX
8
0
10
5594
20
1220
0
VERTEX
8
0
10
5614
20
1220
0
VERTEX
8
0
10
5614
20
1260
0
VERTEX
8
0
10
5614
20
1300
0
VERTEX
8
0
10
5634
20
1300
0
VERTEX
8
0
10
5634
20
1320
0
VERTEX
8
0
10
5634
20
1380
0
VERTEX
8
0
10
5634
20
1420
0
VERTEX
8
0
10
5634
20
1460
0
VERTEX
8
0
10
5654
20
1460
0
VERTEX
8
0
10
5654
20
1480
0
VERTEX
8
0
10
5654
20
1500
0
VERTEX
8
0
10
5634
20
1500
0
VERTEX
8
0
10
5634
20
1539
0
VERTEX
8
0
10
5614
20
1539
0
VERTEX
8
0
10
5614
20
1559
0
SEQEND
0
POLYLINE
8
0
62
18
66
1
40
1
41
1
0
VERTEX
8
0
10
5654
20
1500
0
VERTEX
8
0
10
5654
20
1480
0
VERTEX
8
0
10
5674
20
1480
0
VERTEX
8
0
10
5674
20
1559
0
VERTEX
8
0
10
5654
20
1559
0
VERTEX
8
0
10
5654
20
1500
0
SEQEND
0
POLYLINE
8
0
62
19
66
1
40
1
41
1
0
VERTEX
8
0
10
5634
20
1719
0
VERTEX
8
0
10
5634
20
1699
0
VERTEX
8
0
10
5674
20
1699
0
VERTEX
8
0
10
5674
20
1719
0
VERTEX
8
0
10
5634
20
1719
0
SEQEND
0
POLYLINE
8
0
62
7
66
1
40
1
41
1
0
VERTEX
8
0
10
5234
20
1599
0
VERTEX
8
0
10
5194
20
1599
0
VERTEX
8
0
10
5194
20
1579
0
VERTEX
8
0
10
5214
20
1579
0
VERTEX
8
0
10
5234
20
1579
0
VERTEX
8
0
10
5234
20
1599
0
SEQEND
0
POLYLINE
8
0
62
7
66
1
40
1
41
1
0
VERTEX
8
0
10
5154
20
1559
0
VERTEX
8
0
10
5114
20
1559
0
VERTEX
8
0
10
5114
20
1519
0
VERTEX
8
0
10
5134
20
1519
0
VERTEX
8
0
10
5134
20
1480
0
VERTEX
8
0
10
5174
20
1480
0
VERTEX
8
0
10
5174
20
1519
0
VERTEX
8
0
10
5154
20
1519
0
VERTEX
8
0
10
5154
20
1559
0
SEQEND
0
POLYLINE
8
0
62
7
66
1
40
1
41
1
0
VERTEX
8
0
10
5154
20
1579
0
VERTEX
8
0
10
5154
20
1559
0
VERTEX
8
0
10
5154
20
1519
0
VERTEX
8
0
10
5174
20
1519
0
VERTEX
8
0
10
5174
20
1579
0
VERTEX
8
0
10
5154
20
1579
0
SEQEND
0
POLYLINE
8
0
62
18
66
1
40
1
41
1
0
VERTEX
8
0
10
5214
20
1559
0
VERTEX
8
0
10
5214
20
1579
0
VERTEX
8
0
10
5194
20
1579
0
VERTEX
8
0
10
5174
20
1579
0
VERTEX
8
0
10
5174
20
1519
0
VERTEX
8
0
10
5174
20
1480
0
VERTEX
8
0
10
5254
20
1480
0
VERTEX
8
0
10
5254
20
1500
0
VERTEX
8
0
10
5234
20
1500
0
VERTEX
8
0
10
5214
20
1500
0
VERTEX
8
0
10
5214
20
1559
0
SEQEND
0
POLYLINE
8
0
62
18
66
1
40
1
41
1
0
VERTEX
8
0
10
5214
20
1559
0
VERTEX
8
0
10
5214
20
1500
0
VERTEX
8
0
10
5234
20
1500
0
VERTEX
8
0
10
5234
20
1559
0
VERTEX
8
0
10
5214
20
1559
0
SEQEND
0
POLYLINE
8
0
62
7
66
1
40
1
41
1
0
VERTEX
8
0
10
4974
20
1220
0
VERTEX
8
0
10
4994
20
1220
0
VERTEX
8
0
10
4994
20
1200
0
VERTEX
8
0
10
5014
20
1200
0
VERTEX
8
0
10
5014
20
1240
0
VERTEX
8
0
10
4994
20
1240
0
VERTEX
8
0
10
4994
20
1260
0
VERTEX
8
0
10
4974
20
1260
0
VERTEX
8
0
10
4974
20
1240
0
VERTEX
8
0
10
4914
20
1240
0
VERTEX
8
0
10
4914
20
1100
0
VERTEX
8
0
10
4934
20
1100
0
VERTEX
8
0
10
4934
20
1140
0
VERTEX
8
0
10
4934
20
1180
0
VERTEX
8
0
10
4934
20
1200
0
VERTEX
8
0
10
4974
20
1200
0
VERTEX
8
0
10
4974
20
1220
0
SEQEND
0
POLYLINE
8
0
62
7
66
1
40
1
41
1
0
VERTEX
8
0
10
4994
20
1220
0
VERTEX
8
0
10
4974
20
1220
0
VERTEX
8
0
10
4974
20
1200
0
VERTEX
8
0
10
4934
20
1200
0
VERTEX
8
0
10
4934
20
1180
0
VERTEX
8
0
10
4954
20
1180
0
VERTEX
8
0
10
4954
20
1160
0
VERTEX
8
0
10
4974
20
1160
0
VERTEX
8
0
10
4974
20
1180
0
VERTEX
8
0
10
5014
20
1180
0
VERTEX
8
0
10
5014
20
1200
0
VERTEX
8
0
10
4994
20
1200
0
VERTEX
8
0
10
4994
20
1220
0
SEQEND
0
POLYLINE
8
0
62
7
66
1
40
1
41
1
0
VERTEX
8
0
10
5014
20
1180
0
VERTEX
8
0
10
5014
20
1160
0
VERTEX
8
0
10
5014
20
1140
0
VERTEX
8
0
10
5034
20
1140
0
VERTEX
8
0
10
5034
20
1180
0
VERTEX
8
0
10
5014
20
1180
0
SEQEND
0
POLYLINE
8
0
62
18
66
1
40
1
41
1
0
VERTEX
8
0
10
5014
20
1160
0
VERTEX
8
0
10
5014
20
1180
0
VERTEX
8
0
10
4974
20
1180
0
VERTEX
8
0
10
4974
20
1160
0
VERTEX
8
0
10
4954
20
1160
0
VERTEX
8
0
10
4954
20
1180
0
VERTEX
8
0
10
4934
20
1180
0
VERTEX
8
0
10
4934
20
1140
0
VERTEX
8
0
10
4954
20
1140
0
VERTEX
8
0
10
4994
20
1140
0
VERTEX
8
0
10
4994
20
1160
0
VERTEX
8
0
10
5014
20
1160
0
SEQEND
0
POLYLINE
8
0
62
18
66
1
40
1
41
1
0
VERTEX
8
0
10
4994
20
1120
0
VERTEX
8
0
10
4994
20
1100
0
VERTEX
8
0
10
5034
20
1100
0
VERTEX
8
0
10
5034
20
1120
0
VERTEX
8
0
10
4994
20
1120
0
SEQEND
0
POLYLINE
8
0
62
18
66
1
40
1
41
1
0
VERTEX
8
0
10
4994
20
1100
0
VERTEX
8
0
10
4994
20
1120
0
VERTEX
8
0
10
5034
20
1120
0
VERTEX
8
0
10
5034
20
1140
0
VERTEX
8
0
10
5014
20
1140
0
VERTEX
8
0
10
5014
20
1160
0
VERTEX
8
0
10
4994
20
1160
0
VERTEX
8
0
10
4994
20
1140
0
VERTEX
8
0
10
4954
20
1140
0
VERTEX
8
0
10
4954
20
1120
0
VERTEX
8
0
10
4974
20
1120
0
VERTEX
8
0
10
4974
20
1100
0
VERTEX
8
0
10
4994
20
1100
0
SEQEND
0
POLYLINE
8
0
62
18
66
1
40
1
41
1
0
VERTEX
8
0
10
4974
20
1100
0
VERTEX
8
0
10
4974
20
1120
0
VERTEX
8
0
10
4954
20
1120
0
VERTEX
8
0
10
4954
20
1060
0
VERTEX
8
0
10
4954
20
1020
0
VERTEX
8
0
10
4954
20
1000
0
VERTEX
8
0
10
4974
20
1000
0
VERTEX
8
0
10
4974
20
1040
0
VERTEX
8
0
10
4974
20
1060
0
VERTEX
8
0
10
4974
20
1080
0
VERTEX
8
0
10
5014
20
1080
0
VERTEX
8
0
10
5034
20
1080
0
VERTEX
8
0
10
5034
20
1100
0
VERTEX
8
0
10
4994
20
1100
0
VERTEX
8
0
10
4974
20
1100
0
SEQEND
0
POLYLINE
8
0
62
7
66
1
40
1
41
1
0
VERTEX
8
0
10
5034
20
1120
0
VERTEX
8
0
10
5034
20
1100
0
VERTEX
8
0
10
5054
20
1100
0
VERTEX
8
0
10
5054
20
1140
0
VERTEX
8
0
10
5034
20
1140
0
VERTEX
8
0
10
5034
20
1120
0
SEQEND
0
POLYLINE
8
0
62
18
66
1
40
1
41
1
0
VERTEX
8
0
10
5054
20
1100
0
VERTEX
8
0
10
5034
20
1100
0
VERTEX
8
0
10
5034
20
1080
0
VERTEX
8
0
10
5034
20
1060
0
VERTEX
8
0
10
5054
20
1060
0
VERTEX
8
0
10
5054
20
1100
0
SEQEND
0
POLYLINE
8
0
62
18
66
1
40
1
41
1
0
VERTEX
8
0
10
4934
20
1140
0
VERTEX
8
0
10
4934
20
1100
0
VERTEX
8
0
10
4934
20
1060
0
VERTEX
8
0
10
4954
20
1060
0
VERTEX
8
0
10
4954
20
1120
0
VERTEX
8
0
10
4954
20
1140
0
VERTEX
8
0
10
4934
20
1140
0
SEQEND
0
POLYLINE
8
0
62
7
66
1
40
1
41
1
0
VERTEX
8
0
10
4954
20
1060
0
VERTEX
8
0
10
4934
20
1060
0
VERTEX
8
0
10
4934
20
1020
0
VERTEX
8
0
10
4954
20
1020
0
VERTEX
8
0
10
4954
20
1060
0
SEQEND
0
POLYLINE
8
0
62
16
66
1
40
1
41
1
0
VERTEX
8
0
10
5034
20
1080
0
VERTEX
8
0
10
5014
20
1080
0
VERTEX
8
0
10
5014
20
1060
0
VERTEX
8
0
10
5014
20
1040
0
VERTEX
8
0
10
5054
20
1040
0
VERTEX
8
0
10
5054
20
1060
0
VERTEX
8
0
10
5034
20
1060
0
VERTEX
8
0
10
5034
20
1080
0
SEQEND
0
POLYLINE
8
0
62
16
66
1
40
1
41
1
0
VERTEX
8
0
10
5014
20
1040
0
VERTEX
8
0
10
5014
20
1060
0
VERTEX
8
0
10
4974
20
1060
0
VERTEX
8
0
10
4974
20
1040
0
VERTEX
8
0
10
4994
20
1040
0
VERTEX
8
0
10
4994
20
1020
0
VERTEX
8
0
10
5014
20
1020
0
VERTEX
8
0
10
5014
20
1040
0
SEQEND
0
POLYLINE
8
0
62
18
66
1
40
1
41
1
0
VERTEX
8
0
10
5054
20
1060
0
VERTEX
8
0
10
5054
20
1040
0
VERTEX
8
0
10
5054
20
1020
0
VERTEX
8
0
10
5074
20
1020
0
VERTEX
8
0
10
5074
20
1060
0
VERTEX
8
0
10
5054
20
1060
0
SEQEND
0
POLYLINE
8
0
62
16
66
1
40
1
41
1
0
VERTEX
8
0
10
5054
20
1040
0
VERTEX
8
0
10
5014
20
1040
0
VERTEX
8
0
10
5014
20
1020
0
VERTEX
8
0
10
4994
20
1020
0
VERTEX
8
0
10
4994
20
1000
0
VERTEX
8
0
10
5034
20
1000
0
VERTEX
8
0
10
5034
20
1020
0
VERTEX
8
0
10
5054
20
1020
0
VERTEX
8
0
10
5054
20
1040
0
SEQEND
0
POLYLINE
8
0
62
16
66
1
40
1
41
1
0
VERTEX
8
0
10
5014
20
1060
0
VERTEX
8
0
10
5014
20
1080
0
VERTEX
8
0
10
4974
20
1080
0
VERTEX
8
0
10
4974
20
1060
0
VERTEX
8
0
10
5014
20
1060
0
SEQEND
0
POLYLINE
8
0
62
16
66
1
40
1
41
1
0
VERTEX
8
0
10
4994
20
1040
0
VERTEX
8
0
10
4974
20
1040
0
VERTEX
8
0
10
4974
20
1000
0
VERTEX
8
0
10
4974
20
960
0
VERTEX
8
0
10
4994
20
960
0
VERTEX
8
0
10
4994
20
980
0
VERTEX
8
0
10
4994
20
1000
0
VERTEX
8
0
10
4994
20
1020
0
VERTEX
8
0
10
4994
20
1040
0
SEQEND
0
POLYLINE
8
0
62
14
66
1
40
1
41
1
0
VERTEX
8
0
10
4994
20
1000
0
VERTEX
8
0
10
4994
20
980
0
VERTEX
8
0
10
5014
20
980
0
VERTEX
8
0
10
5014
20
960
0
VERTEX
8
0
10
5034
20
960
0
VERTEX
8
0
10
5034
20
1000
0
VERTEX
8
0
10
4994
20
1000
0
SEQEND
0
POLYLINE
8
0
62
16
66
1
40
1
41
1
0
VERTEX
8
0
10
5054
20
1020
0
VERTEX
8
0
10
5054
20
980
0
VERTEX
8
0
10
5074
20
980
0
VERTEX
8
0
10
5074
20
1020
0
VERTEX
8
0
10
5054
20
1020
0
SEQEND
0
POLYLINE
8
0
62
14
66
1
40
1
41
1
0
VERTEX
8
0
10
5054
20
980
0
VERTEX
8
0
10
5054
20
1020
0
VERTEX
8
0
10
5034
20
1020
0
VERTEX
8
0
10
5034
20
1000
0
VERTEX
8
0
10
5034
20
960
0
VERTEX
8
0
10
5074
20
960
0
VERTEX
8
0
10
5074
20
980
0
VERTEX
8
0
10
5054
20
980
0
SEQEND
0
POLYLINE
8
0
62
14
66
1
40
1
41
1
0
VERTEX
8
0
10
5014
20
980
0
VERTEX
8
0
10
4994
20
980
0
VERTEX
8
0
10
4994
20
960
0
VERTEX
8
0
10
4994
20
920
0
VERTEX
8
0
10
4994
20
880
0
VERTEX
8
0
10
5014
20
880
0
VERTEX
8
0
10
5014
20
900
0
VERTEX
8
0
10
5034
20
900
0
VERTEX
8
0
10
5054
20
900
0
VERTEX
8
0
10
5054
20
940
0
VERTEX
8
0
10
5014
20
940
0
VERTEX
8
0
10
5014
20
960
0
VERTEX
8
0
10
5014
20
980
0
SEQEND
0
POLYLINE
8
0
62
18
66
1
40
1
41
1
0
VERTEX
8
0
10
4974
20
1000
0
VERTEX
8
0
10
4954
20
1000
0
VERTEX
8
0
10
4954
20
960
0
VERTEX
8
0
10
4974
20
960
0
VERTEX
8
0
10
4974
20
1000
0
SEQEND
0
POLYLINE
8
0
62
7
66
1
40
1
41
1
0
VERTEX
8
0
10
5094
20
980
0
VERTEX
8
0
10
5094
20
1020
0
VERTEX
8
0
10
5074
20
1020
0
VERTEX
8
0
10
5074
20
980
0
VERTEX
8
0
10
5094
20
980
0
SEQEND
0
POLYLINE
8
0
62
18
66
1
40
1
41
1
0
VERTEX
8
0
10
5094
20
980
0
VERTEX
8
0
10
5074
20
980
0
VERTEX
8
0
10
5074
20
960
0
VERTEX
8
0
10
5074
20
940
0
VERTEX
8
0
10
5094
20
940
0
VERTEX
8
0
10
5094
20
980
0
SEQEND
0
POLYLINE
8
0
62
12
66
1
40
1
41
1
0
VERTEX
8
0
10
5634
20
1460
0
VERTEX
8
0
10
5634
20
1420
0
VERTEX
8
0
10
5654
20
1420
0
VERTEX
8
0
10
5654
20
1460
0
VERTEX
8
0
10
5634
20
1460
0
SEQEND
0
POLYLINE
8
0
62
18
66
1
40
1
41
1
0
VERTEX
8
0
10
5654
20
1460
0
VERTEX
8
0
10
5654
20
1420
0
VERTEX
8
0
10
5674
20
1420
0
VERTEX
8
0
10
5674
20
1480
0
VERTEX
8
0
10
5654
20
1480
0
VERTEX
8
0
10
5654
20
1460
0
SEQEND
0
POLYLINE
8
0
62
12
66
1
40
1
41
1
0
VERTEX
8
0
10
5654
20
1420
0
VERTEX
8
0
10
5634
20
1420
0
VERTEX
8
0
10
5634
20
1380
0
VERTEX
8
0
10
5654
20
1380
0
VERTEX
8
0
10
5654
20
1400
0
VERTEX
8
0
10
5654
20
1420
0
SEQEND
0
POLYLINE
8
0
62
14
66
1
40
1
41
1
0
VERTEX
8
0
10
5574
20
1420
0
VERTEX
8
0
10
5574
20
1460
0
VERTEX
8
0
10
5554
20
1460
0
VERTEX
8
0
10
5554
20
1440
0
VERTEX
8
0
10
5554
20
1420
0
VERTEX
8
0
10
5574
20
1420
0
SEQEND
0
POLYLINE
8
0
62
18
66
1
40
1
41
1
0
VERTEX
8
0
10
5654
20
1380
0
VERTEX
8
0
10
5654
20
1360
0
VERTEX
8
0
10
5674
20
1360
0
VERTEX
8
0
10
5674
20
1400
0
VERTEX
8
0
10
5654
20
1400
0
VERTEX
8
0
10
5654
20
1380
0
SEQEND
0
POLYLINE
8
0
62
12
66
1
40
1
41
1
0
VERTEX
8
0
10
5654
20
1360
0
VERTEX
8
0
10
5654
20
1380
0
VERTEX
8
0
10
5634
20
1380
0
VERTEX
8
0
10
5634
20
1320
0
VERTEX
8
0
10
5654
20
1320
0
VERTEX
8
0
10
5654
20
1360
0
SEQEND
0
POLYLINE
8
0
62
12
66
1
40
1
41
1
0
VERTEX
8
0
10
5574
20
1340
0
VERTEX
8
0
10
5574
20
1420
0
VERTEX
8
0
10
5554
20
1420
0
VERTEX
8
0
10
5554
20
1400
0
VERTEX
8
0
10
5554
20
1380
0
VERTEX
8
0
10
5554
20
1340
0
VERTEX
8
0
10
5574
20
1340
0
SEQEND
0
POLYLINE
8
0
62
7
66
1
40
1
41
1
0
VERTEX
8
0
10
5554
20
1420
0
VERTEX
8
0
10
5554
20
1440
0
VERTEX
8
0
10
5534
20
1440
0
VERTEX
8
0
10
5534
20
1400
0
VERTEX
8
0
10
5554
20
1400
0
VERTEX
8
0
10
5554
20
1420
0
SEQEND
0
POLYLINE
8
0
62
18
66
1
40
1
41
1
0
VERTEX
8
0
10
5534
20
1380
0
VERTEX
8
0
10
5534
20
1340
0
VERTEX
8
0
10
5554
20
1340
0
VERTEX
8
0
10
5554
20
1380
0
VERTEX
8
0
10
5534
20
1380
0
SEQEND
0
POLYLINE
8
0
62
16
66
1
40
1
41
1
0
VERTEX
8
0
10
5554
20
1340
0
VERTEX
8
0
10
5534
20
1340
0
VERTEX
8
0
10
5534
20
1300
0
VERTEX
8
0
10
5554
20
1300
0
VERTEX
8
0
10
5554
20
1340
0
SEQEND
0
POLYLINE
8
0
62
12
66
1
40
1
41
1
0
VERTEX
8
0
10
5554
20
1300
0
VERTEX
8
0
10
5534
20
1300
0
VERTEX
8
0
10
5534
20
1260
0
VERTEX
8
0
10
5554
20
1260
0
VERTEX
8
0
10
5554
20
1300
0
SEQEND
0
POLYLINE
8
0
62
16
66
1
40
1
41
1
0
VERTEX
8
0
10
5514
20
1260
0
VERTEX
8
0
10
5514
20
1220
0
VERTEX
8
0
10
5534
20
1220
0
VERTEX
8
0
10
5534
20
1260
0
VERTEX
8
0
10
5514
20
1260
0
SEQEND
0
POLYLINE
8
0
62
18
66
1
40
1
41
1
0
VERTEX
8
0
10
5514
20
1220
0
VERTEX
8
0
10
5494
20
1220
0
VERTEX
8
0
10
5494
20
1180
0
VERTEX
8
0
10
5514
20
1180
0
VERTEX
8
0
10
5514
20
1220
0
SEQEND
0
POLYLINE
8
0
62
12
66
1
40
1
41
1
0
VERTEX
8
0
10
5534
20
1220
0
VERTEX
8
0
10
5514
20
1220
0
VERTEX
8
0
10
5514
20
1180
0
VERTEX
8
0
10
5494
20
1180
0
VERTEX
8
0
10
5494
20
1140
0
VERTEX
8
0
10
5474
20
1140
0
VERTEX
8
0
10
5474
20
1100
0
VERTEX
8
0
10
5454
20
1100
0
VERTEX
8
0
10
5454
20
1080
0
VERTEX
8
0
10
5434
20
1080
0
VERTEX
8
0
10
5434
20
1040
0
VERTEX
8
0
10
5414
20
1040
0
VERTEX
8
0
10
5414
20
1020
0
VERTEX
8
0
10
5394
20
1020
0
VERTEX
8
0
10
5394
20
1000
0
VERTEX
8
0
10
5374
20
1000
0
VERTEX
8
0
10
5374
20
980
0
VERTEX
8
0
10
5354
20
980
0
VERTEX
8
0
10
5354
20
960
0
VERTEX
8
0
10
5334
20
960
0
VERTEX
8
0
10
5334
20
940
0
VERTEX
8
0
10
5314
20
940
0
VERTEX
8
0
10
5314
20
920
0
VERTEX
8
0
10
5294
20
920
0
VERTEX
8
0
10
5294
20
900
0
VERTEX
8
0
10
5254
20
900
0
VERTEX
8
0
10
5254
20
880
0
VERTEX
8
0
10
5234
20
880
0
VERTEX
8
0
10
5234
20
860
0
VERTEX
8
0
10
5194
20
860
0
VERTEX
8
0
10
5194
20
840
0
VERTEX
8
0
10
5154
20
840
0
VERTEX
8
0
10
5154
20
820
0
VERTEX
8
0
10
5134
20
820
0
VERTEX
8
0
10
5134
20
800
0
VERTEX
8
0
10
5054
20
800
0
VERTEX
8
0
10
5054
20
820
0
VERTEX
8
0
10
5054
20
840
0
VERTEX
8
0
10
5034
20
840
0
VERTEX
8
0
10
5034
20
800
0
VERTEX
8
0
10
5014
20
800
0
VERTEX
8
0
10
5014
20
780
0
VERTEX
8
0
10
4974
20
780
0
VERTEX
8
0
10
4974
20
760
0
VERTEX
8
0
10
4914
20
760
0
VERTEX
8
0
10
4914
20
780
0
VERTEX
8
0
10
4894
20
780
0
VERTEX
8
0
10
4894
20
760
0
VERTEX
8
0
10
4854
20
760
0
VERTEX
8
0
10
4794
20
760
0
VERTEX
8
0
10
4794
20
780
0
VERTEX
8
0
10
4754
20
780
0
VERTEX
8
0
10
4714
20
780
0
VERTEX
8
0
10
4714
20
800
0
VERTEX
8
0
10
4674
20
800
0
VERTEX
8
0
10
4634
20
800
0
VERTEX
8
0
10
4634
20
820
0
VERTEX
8
0
10
4594
20
820
0
VERTEX
8
0
10
4594
20
840
0
VERTEX
8
0
10
4554
20
840
0
VERTEX
8
0
10
4554
20
860
0
VERTEX
8
0
10
4554
20
880
0
VERTEX
8
0
10
4514
20
880
0
VERTEX
8
0
10
4474
20
880
0
VERTEX
8
0
10
4474
20
920
0
VERTEX
8
0
10
4454
20
920
0
VERTEX
8
0
10
4454
20
940
0
VERTEX
8
0
10
4434
20
940
0
VERTEX
8
0
10
4434
20
920
0
VERTEX
8
0
10
4374
20
920
0
VERTEX
8
0
10
4374
20
900
0
VERTEX
8
0
10
4394
20
900
0
VERTEX
8
0
10
4394
20
860
0
VERTEX
8
0
10
4414
20
860
0
VERTEX
8
0
10
4414
20
840
0
VERTEX
8
0
10
4434
20
840
0
VERTEX
8
0
10
4434
20
820
0
VERTEX
8
0
10
4474
20
820
0
VERTEX
8
0
10
4474
20
800
0
VERTEX
8
0
10
4494
20
800
0
VERTEX
8
0
10
4494
20
780
0
VERTEX
8
0
10
4534
20
780
0
VERTEX
8
0
10
4534
20
760
0
VERTEX
8
0
10
4574
20
760
0
VERTEX
8
0
10
4574
20
740
0
VERTEX
8
0
10
4614
20
740
0
VERTEX
8
0
10
4654
20
740
0
VERTEX
8
0
10
4654
20
720
0
VERTEX
8
0
10
4674
20
720
0
VERTEX
8
0
10
4714
20
720
0
VERTEX
8
0
10
4714
20
700
0
VERTEX
8
0
10
4754
20
700
0
VERTEX
8
0
10
4814
20
700
0
VERTEX
8
0
10
4814
20
680
0
VERTEX
8
0
10
4834
20
680
0
VERTEX
8
0
10
4854
20
680
0
VERTEX
8
0
10
4854
20
700
0
VERTEX
8
0
10
4894
20
700
0
VERTEX
8
0
10
4934
20
700
0
VERTEX
8
0
10
5014
20
700
0
VERTEX
8
0
10
5054
20
700
0
VERTEX
8
0
10
5074
20
700
0
VERTEX
8
0
10
5074
20
660
0
VERTEX
8
0
10
5074
20
620
0
VERTEX
8
0
10
5094
20
620
0
VERTEX
8
0
10
5094
20
700
0
VERTEX
8
0
10
5114
20
700
0
VERTEX
8
0
10
5114
20
660
0
VERTEX
8
0
10
5134
20
660
0
VERTEX
8
0
10
5154
20
660
0
VERTEX
8
0
10
5154
20
680
0
VERTEX
8
0
10
5134
20
680
0
VERTEX
8
0
10
5134
20
720
0
VERTEX
8
0
10
5134
20
740
0
VERTEX
8
0
10
5174
20
740
0
VERTEX
8
0
10
5174
20
760
0
VERTEX
8
0
10
5214
20
760
0
VERTEX
8
0
10
5214
20
780
0
VERTEX
8
0
10
5254
20
780
0
VERTEX
8
0
10
5254
20
800
0
VERTEX
8
0
10
5294
20
800
0
VERTEX
8
0
10
5314
20
800
0
VERTEX
8
0
10
5314
20
820
0
VERTEX
8
0
10
5314
20
840
0
VERTEX
8
0
10
5354
20
840
0
VERTEX
8
0
10
5354
20
880
0
VERTEX
8
0
10
5394
20
880
0
VERTEX
8
0
10
5414
20
880
0
VERTEX
8
0
10
5414
20
900
0
VERTEX
8
0
10
5434
20
900
0
VERTEX
8
0
10
5434
20
920
0
VERTEX
8
0
10
5454
20
920
0
VERTEX
8
0
10
5454
20
940
0
VERTEX
8
0
10
5474
20
940
0
VERTEX
8
0
10
5474
20
960
0
VERTEX
8
0
10
5494
20
960
0
VERTEX
8
0
10
5494
20
980
0
VERTEX
8
0
10
5494
20
1020
0
VERTEX
8
0
10
5514
20
1020
0
VERTEX
8
0
10
5514
20
1060
0
VERTEX
8
0
10
5534
20
1060
0
VERTEX
8
0
10
5534
20
1080
0
VERTEX
8
0
10
5554
20
1080
0
VERTEX
8
0
10
5554
20
1120
0
VERTEX
8
0
10
5574
20
1120
0
VERTEX
8
0
10
5574
20
1160
0
VERTEX
8
0
10
5594
20
1160
0
VERTEX
8
0
10
5594
20
1220
0
VERTEX
8
0
10
5534
20
1220
0
SEQEND
0
POLYLINE
8
0
62
16
66
1
40
1
41
1
0
VERTEX
8
0
10
5654
20
1280
0
VERTEX
8
0
10
5654
20
1320
0
VERTEX
8
0
10
5634
20
1320
0
VERTEX
8
0
10
5634
20
1300
0
VERTEX
8
0
10
5634
20
1280
0
VERTEX
8
0
10
5654
20
1280
0
SEQEND
0
POLYLINE
8
0
62
12
66
1
40
1
41
1
0
VERTEX
8
0
10
5634
20
1280
0
VERTEX
8
0
10
5634
20
1300
0
VERTEX
8
0
10
5614
20
1300
0
VERTEX
8
0
10
5614
20
1260
0
VERTEX
8
0
10
5634
20
1260
0
VERTEX
8
0
10
5634
20
1280
0
SEQEND
0
POLYLINE
8
0
62
14
66
1
40
1
41
1
0
VERTEX
8
0
10
5614
20
1260
0
VERTEX
8
0
10
5614
20
1220
0
VERTEX
8
0
10
5634
20
1220
0
VERTEX
8
0
10
5634
20
1260
0
VERTEX
8
0
10
5614
20
1260
0
SEQEND
0
POLYLINE
8
0
62
12
66
1
40
1
41
1
0
VERTEX
8
0
10
5614
20
1220
0
VERTEX
8
0
10
5594
20
1220
0
VERTEX
8
0
10
5594
20
1160
0
VERTEX
8
0
10
5614
20
1160
0
VERTEX
8
0
10
5614
20
1220
0
SEQEND
0
POLYLINE
8
0
62
16
66
1
40
1
41
1
0
VERTEX
8
0
10
5454
20
1140
0
VERTEX
8
0
10
5454
20
1100
0
VERTEX
8
0
10
5474
20
1100
0
VERTEX
8
0
10
5474
20
1140
0
VERTEX
8
0
10
5454
20
1140
0
SEQEND
0
POLYLINE
8
0
62
18
66
1
40
1
41
1
0
VERTEX
8
0
10
5434
20
1040
0
VERTEX
8
0
10
5434
20
1080
0
VERTEX
8
0
10
5414
20
1080
0
VERTEX
8
0
10
5414
20
1040
0
VERTEX
8
0
10
5434
20
1040
0
SEQEND
0
POLYLINE
8
0
62
12
66
1
40
1
41
1
0
VERTEX
8
0
10
5594
20
1160
0
VERTEX
8
0
10
5574
20
1160
0
VERTEX
8
0
10
5574
20
1120
0
VERTEX
8
0
10
5594
20
1120
0
VERTEX
8
0
10
5594
20
1160
0
SEQEND
0
POLYLINE
8
0
62
18
66
1
40
1
41
1
0
VERTEX
8
0
10
5474
20
1140
0
VERTEX
8
0
10
5494
20
1140
0
VERTEX
8
0
10
5494
20
1180
0
VERTEX
8
0
10
5474
20
1180
0
VERTEX
8
0
10
5474
20
1140
0
SEQEND
0
POLYLINE
8
0
62
14
66
1
40
1
41
1
0
VERTEX
8
0
10
5554
20
1040
0
VERTEX
8
0
10
5554
20
1080
0
VERTEX
8
0
10
5534
20
1080
0
VERTEX
8
0
10
5534
20
1060
0
VERTEX
8
0
10
5534
20
1040
0
VERTEX
8
0
10
5554
20
1040
0
SEQEND
0
POLYLINE
8
0
62
12
66
1
40
1
41
1
0
VERTEX
8
0
10
5534
20
1040
0
VERTEX
8
0
10
5534
20
1060
0
VERTEX
8
0
10
5514
20
1060
0
VERTEX
8
0
10
5514
20
1020
0
VERTEX
8
0
10
5534
20
1020
0
VERTEX
8
0
10
5534
20
1040
0
SEQEND
0
POLYLINE
8
0
62
14
66
1
40
1
41
1
0
VERTEX
8
0
10
5514
20
980
0
VERTEX
8
0
10
5514
20
1020
0
VERTEX
8
0
10
5494
20
1020
0
VERTEX
8
0
10
5494
20
980
0
VERTEX
8
0
10
5514
20
980
0
SEQEND
0
POLYLINE
8
0
62
14
66
1
40
1
41
1
0
VERTEX
8
0
10
5554
20
1120
0
VERTEX
8
0
10
5554
20
1080
0
VERTEX
8
0
10
5574
20
1080
0
VERTEX
8
0
10
5574
20
1120
0
VERTEX
8
0
10
5554
20
1120
0
SEQEND
0
POLYLINE
8
0
62
252
66
1
40
1
41
1
0
VERTEX
8
0
10
6214
20
1919
0
VERTEX
8
0
10
6194
20
1919
0
VERTEX
8
0
10
6194
20
1879
0
VERTEX
8
0
10
6194
20
1859
0
VERTEX
8
0
10
6214
20
1859
0
VERTEX
8
0
10
6214
20
1919
0
SEQEND
0
POLYLINE
8
0
62
47
66
1
40
1
41
1
0
VERTEX
8
0
10
6214
20
1839
0
VERTEX
8
0
10
6214
20
1859
0
VERTEX
8
0
10
6194
20
1859
0
VERTEX
8
0
10
6034
20
1859
0
VERTEX
8
0
10
6034
20
1839
0
VERTEX
8
0
10
6214
20
1839
0
SEQEND
0
POLYLINE
8
0
62
7
66
1
40
1
41
1
0
VERTEX
8
0
10
6094
20
1819
0
VERTEX
8
0
10
6094
20
1779
0
VERTEX
8
0
10
6114
20
1779
0
VERTEX
8
0
10
6114
20
1819
0
VERTEX
8
0
10
6094
20
1819
0
SEQEND
0
POLYLINE
8
0
62
7
66
1
40
1
41
1
0
VERTEX
8
0
10
6094
20
1779
0
VERTEX
8
0
10
6094
20
1819
0
VERTEX
8
0
10
6034
20
1819
0
VERTEX
8
0
10
6034
20
1799
0
VERTEX
8
0
10
6054
20
1799
0
VERTEX
8
0
10
6074
20
1799
0
VERTEX
8
0
10
6074
20
1779
0
VERTEX
8
0
10
6094
20
1779
0
SEQEND
0
POLYLINE
8
0
62
7
66
1
40
1
41
1
0
VERTEX
8
0
10
6114
20
1779
0
VERTEX
8
0
10
6094
20
1779
0
VERTEX
8
0
10
6094
20
1719
0
VERTEX
8
0
10
6114
20
1719
0
VERTEX
8
0
10
6114
20
1739
0
VERTEX
8
0
10
6114
20
1779
0
SEQEND
0
POLYLINE
8
0
62
7
66
1
40
1
41
1
0
VERTEX
8
0
10
6114
20
1779
0
VERTEX
8
0
10
6114
20
1739
0
VERTEX
8
0
10
6134
20
1739
0
VERTEX
8
0
10
6134
20
1779
0
VERTEX
8
0
10
6114
20
1779
0
SEQEND
0
POLYLINE
8
0
62
28
66
1
40
1
41
1
0
VERTEX
8
0
10
6094
20
1719
0
VERTEX
8
0
10
6094
20
1779
0
VERTEX
8
0
10
6074
20
1779
0
VERTEX
8
0
10
6074
20
1799
0
VERTEX
8
0
10
6054
20
1799
0
VERTEX
8
0
10
6054
20
1759
0
VERTEX
8
0
10
6074
20
1759
0
VERTEX
8
0
10
6074
20
1719
0
VERTEX
8
0
10
6094
20
1719
0
SEQEND
0
POLYLINE
8
0
62
252
66
1
40
1
41
1
0
VERTEX
8
0
10
6034
20
1839
0
VERTEX
8
0
10
6034
20
1859
0
VERTEX
8
0
10
6014
20
1859
0
VERTEX
8
0
10
6014
20
1819
0
VERTEX
8
0
10
6014
20
1799
0
VERTEX
8
0
10
6034
20
1799
0
VERTEX
8
0
10
6034
20
1819
0
VERTEX
8
0
10
6034
20
1839
0
SEQEND
0
POLYLINE
8
0
62
254
66
1
40
1
41
1
0
VERTEX
8
0
10
5934
20
1779
0
VERTEX
8
0
10
5954
20
1779
0
VERTEX
8
0
10
5974
20
1779
0
VERTEX
8
0
10
5974
20
1799
0
VERTEX
8
0
10
5934
20
1799
0
VERTEX
8
0
10
5934
20
1779
0
SEQEND
0
POLYLINE
8
0
62
9
66
1
40
1
41
1
0
VERTEX
8
0
10
5954
20
1779
0
VERTEX
8
0
10
5934
20
1779
0
VERTEX
8
0
10
5894
20
1779
0
VERTEX
8
0
10
5894
20
1759
0
VERTEX
8
0
10
5914
20
1759
0
VERTEX
8
0
10
5934
20
1759
0
VERTEX
8
0
10
5934
20
1719
0
VERTEX
8
0
10
5954
20
1719
0
VERTEX
8
0
10
5954
20
1779
0
SEQEND
0
POLYLINE
8
0
62
254
66
1
40
1
41
1
0
VERTEX
8
0
10
5934
20
1779
0
VERTEX
8
0
10
5934
20
1799
0
VERTEX
8
0
10
5974
20
1799
0
VERTEX
8
0
10
6014
20
1799
0
VERTEX
8
0
10
6014
20
1819
0
VERTEX
8
0
10
5774
20
1819
0
VERTEX
8
0
10
5774
20
1779
0
VERTEX
8
0
10
5854
20
1779
0
VERTEX
8
0
10
5894
20
1779
0
VERTEX
8
0
10
5934
20
1779
0
SEQEND
0
POLYLINE
8
0
62
252
66
1
40
1
41
1
0
VERTEX
8
0
10
5894
20
1759
0
VERTEX
8
0
10
5894
20
1739
0
VERTEX
8
0
10
5894
20
1699
0
VERTEX
8
0
10
5914
20
1699
0
VERTEX
8
0
10
5914
20
1759
0
VERTEX
8
0
10
5894
20
1759
0
SEQEND
0
POLYLINE
8
0
62
11
66
1
40
1
41
1
0
VERTEX
8
0
10
5894
20
1739
0
VERTEX
8
0
10
5894
20
1759
0
VERTEX
8
0
10
5854
20
1759
0
VERTEX
8
0
10
5834
20
1759
0
VERTEX
8
0
10
5834
20
1739
0
VERTEX
8
0
10
5854
20
1739
0
VERTEX
8
0
10
5854
20
1699
0
VERTEX
8
0
10
5874
20
1699
0
VERTEX
8
0
10
5874
20
1739
0
VERTEX
8
0
10
5894
20
1739
0
SEQEND
0
POLYLINE
8
0
62
11
66
1
40
1
41
1
0
VERTEX
8
0
10
5894
20
1739
0
VERTEX
8
0
10
5874
20
1739
0
VERTEX
8
0
10
5874
20
1699
0
VERTEX
8
0
10
5874
20
1679
0
VERTEX
8
0
10
5894
20
1679
0
VERTEX
8
0
10
5894
20
1699
0
VERTEX
8
0
10
5894
20
1739
0
SEQEND
0
POLYLINE
8
0
62
21
66
1
40
1
41
1
0
VERTEX
8
0
10
5934
20
1719
0
VERTEX
8
0
10
5934
20
1759
0
VERTEX
8
0
10
5914
20
1759
0
VERTEX
8
0
10
5914
20
1699
0
VERTEX
8
0
10
5934
20
1699
0
VERTEX
8
0
10
5934
20
1719
0
SEQEND
0
POLYLINE
8
0
62
9
66
1
40
1
41
1
0
VERTEX
8
0
10
5954
20
1719
0
VERTEX
8
0
10
5934
20
1719
0
VERTEX
8
0
10
5934
20
1699
0
VERTEX
8
0
10
5934
20
1679
0
VERTEX
8
0
10
5954
20
1679
0
VERTEX
8
0
10
5954
20
1699
0
VERTEX
8
0
10
5954
20
1719
0
SEQEND
0
POLYLINE
8
0
62
9
66
1
40
1
41
1
0
VERTEX
8
0
10
5954
20
1779
0
VERTEX
8
0
10
5954
20
1719
0
VERTEX
8
0
10
5974
20
1719
0
VERTEX
8
0
10
5974
20
1779
0
VERTEX
8
0
10
5954
20
1779
0
SEQEND
0
POLYLINE
8
0
62
254
66
1
40
1
41
1
0
VERTEX
8
0
10
5894
20
1759
0
VERTEX
8
0
10
5894
20
1779
0
VERTEX
8
0
10
5854
20
1779
0
VERTEX
8
0
10
5854
20
1759
0
VERTEX
8
0
10
5894
20
1759
0
SEQEND
0
POLYLINE
8
0
62
28
66
1
40
1
41
1
0
VERTEX
8
0
10
6054
20
1799
0
VERTEX
8
0
10
6034
20
1799
0
VERTEX
8
0
10
6034
20
1739
0
VERTEX
8
0
10
6034
20
1699
0
VERTEX
8
0
10
6054
20
1699
0
VERTEX
8
0
10
6054
20
1719
0
VERTEX
8
0
10
6054
20
1759
0
VERTEX
8
0
10
6054
20
1799
0
SEQEND
0
POLYLINE
8
0
62
253
66
1
40
1
41
1
0
VERTEX
8
0
10
6014
20
1799
0
VERTEX
8
0
10
5974
20
1799
0
VERTEX
8
0
10
5974
20
1779
0
VERTEX
8
0
10
5994
20
1779
0
VERTEX
8
0
10
5994
20
1759
0
VERTEX
8
0
10
6014
20
1759
0
VERTEX
8
0
10
6014
20
1799
0
SEQEND
0
POLYLINE
8
0
62
9
66
1
40
1
41
1
0
VERTEX
8
0
10
5994
20
1779
0
VERTEX
8
0
10
5974
20
1779
0
VERTEX
8
0
10
5974
20
1719
0
VERTEX
8
0
10
5994
20
1719
0
VERTEX
8
0
10
5994
20
1759
0
VERTEX
8
0
10
5994
20
1779
0
SEQEND
0
POLYLINE
8
0
62
9
66
1
40
1
41
1
0
VERTEX
8
0
10
5994
20
1759
0
VERTEX
8
0
10
5994
20
1719
0
VERTEX
8
0
10
5994
20
1699
0
VERTEX
8
0
10
6014
20
1699
0
VERTEX
8
0
10
6014
20
1739
0
VERTEX
8
0
10
6014
20
1759
0
VERTEX
8
0
10
5994
20
1759
0
SEQEND
0
POLYLINE
8
0
62
251
66
1
40
1
41
1
0
VERTEX
8
0
10
6014
20
1759
0
VERTEX
8
0
10
6014
20
1739
0
VERTEX
8
0
10
6034
20
1739
0
VERTEX
8
0
10
6034
20
1799
0
VERTEX
8
0
10
6014
20
1799
0
VERTEX
8
0
10
6014
20
1759
0
SEQEND
0
POLYLINE
8
0
62
9
66
1
40
1
41
1
0
VERTEX
8
0
10
5994
20
1719
0
VERTEX
8
0
10
5974
20
1719
0
VERTEX
8
0
10
5954
20
1719
0
VERTEX
8
0
10
5954
20
1699
0
VERTEX
8
0
10
5994
20
1699
0
VERTEX
8
0
10
5994
20
1719
0
SEQEND
0
POLYLINE
8
0
62
28
66
1
40
1
41
1
0
VERTEX
8
0
10
6074
20
1759
0
VERTEX
8
0
10
6054
20
1759
0
VERTEX
8
0
10
6054
20
1719
0
VERTEX
8
0
10
6074
20
1719
0
VERTEX
8
0
10
6074
20
1759
0
SEQEND
0
POLYLINE
8
0
62
251
66
1
40
1
41
1
0
VERTEX
8
0
10
6034
20
1739
0
VERTEX
8
0
10
6014
20
1739
0
VERTEX
8
0
10
6014
20
1699
0
VERTEX
8
0
10
6034
20
1699
0
VERTEX
8
0
10
6034
20
1739
0
SEQEND
0
POLYLINE
8
0
62
254
66
1
40
1
41
1
0
VERTEX
8
0
10
6014
20
1819
0
VERTEX
8
0
10
6014
20
1859
0
VERTEX
8
0
10
5774
20
1859
0
VERTEX
8
0
10
5774
20
1839
0
VERTEX
8
0
10
5774
20
1819
0
VERTEX
8
0
10
6014
20
1819
0
SEQEND
0
POLYLINE
8
0
62
15
66
1
40
1
41
1
0
VERTEX
8
0
10
5734
20
1719
0
VERTEX
8
0
10
5674
20
1719
0
VERTEX
8
0
10
5674
20
1699
0
VERTEX
8
0
10
5694
20
1699
0
VERTEX
8
0
10
5714
20
1699
0
VERTEX
8
0
10
5734
20
1699
0
VERTEX
8
0
10
5754
20
1699
0
VERTEX
8
0
10
5754
20
1719
0
VERTEX
8
0
10
5734
20
1719
0
SEQEND
0
POLYLINE
8
0
62
17
66
1
40
1
41
1
0
VERTEX
8
0
10
5734
20
1719
0
VERTEX
8
0
10
5754
20
1719
0
VERTEX
8
0
10
5774
20
1719
0
VERTEX
8
0
10
5774
20
1739
0
VERTEX
8
0
10
5734
20
1739
0
VERTEX
8
0
10
5734
20
1719
0
SEQEND
0
POLYLINE
8
0
62
11
66
1
40
1
41
1
0
VERTEX
8
0
10
5814
20
1719
0
VERTEX
8
0
10
5814
20
1739
0
VERTEX
8
0
10
5794
20
1739
0
VERTEX
8
0
10
5774
20
1739
0
VERTEX
8
0
10
5774
20
1719
0
VERTEX
8
0
10
5774
20
1659
0
VERTEX
8
0
10
5774
20
1639
0
VERTEX
8
0
10
5814
20
1639
0
VERTEX
8
0
10
5814
20
1659
0
VERTEX
8
0
10
5854
20
1659
0
VERTEX
8
0
10
5854
20
1679
0
VERTEX
8
0
10
5834
20
1679
0
VERTEX
8
0
10
5814
20
1679
0
VERTEX
8
0
10
5814
20
1699
0
VERTEX
8
0
10
5794
20
1699
0
VERTEX
8
0
10
5794
20
1719
0
VERTEX
8
0
10
5814
20
1719
0
SEQEND
0
POLYLINE
8
0
62
11
66
1
40
1
41
1
0
VERTEX
8
0
10
5814
20
1739
0
VERTEX
8
0
10
5814
20
1719
0
VERTEX
8
0
10
5794
20
1719
0
VERTEX
8
0
10
5794
20
1699
0
VERTEX
8
0
10
5814
20
1699
0
VERTEX
8
0
10
5814
20
1679
0
VERTEX
8
0
10
5834
20
1679
0
VERTEX
8
0
10
5834
20
1739
0
VERTEX
8
0
10
5814
20
1739
0
SEQEND
0
POLYLINE
8
0
62
9
66
1
40
1
41
1
0
VERTEX
8
0
10
5794
20
1739
0
VERTEX
8
0
10
5814
20
1739
0
VERTEX
8
0
10
5834
20
1739
0
VERTEX
8
0
10
5834
20
1759
0
VERTEX
8
0
10
5794
20
1759
0
VERTEX
8
0
10
5794
20
1739
0
SEQEND
0
POLYLINE
8
0
62
254
66
1
40
1
41
1
0
VERTEX
8
0
10
5794
20
1739
0
VERTEX
8
0
10
5794
20
1759
0
VERTEX
8
0
10
5834
20
1759
0
VERTEX
8
0
10
5854
20
1759
0
VERTEX
8
0
10
5854
20
1779
0
VERTEX
8
0
10
5774
20
1779
0
VERTEX
8
0
10
5774
20
1739
0
VERTEX
8
0
10
5794
20
1739
0
SEQEND
0
POLYLINE
8
0
62
11
66
1
40
1
41
1
0
VERTEX
8
0
10
5854
20
1739
0
VERTEX
8
0
10
5834
20
1739
0
VERTEX
8
0
10
5834
20
1679
0
VERTEX
8
0
10
5854
20
1679
0
VERTEX
8
0
10
5854
20
1699
0
VERTEX
8
0
10
5854
20
1739
0
SEQEND
0
POLYLINE
8
0
62
15
66
1
40
1
41
1
0
VERTEX
8
0
10
5774
20
1719
0
VERTEX
8
0
10
5754
20
1719
0
VERTEX
8
0
10
5754
20
1699
0
VERTEX
8
0
10
5754
20
1659
0
VERTEX
8
0
10
5774
20
1659
0
VERTEX
8
0
10
5774
20
1719
0
SEQEND
0
POLYLINE
8
0
62
11
66
1
40
1
41
1
0
VERTEX
8
0
10
5854
20
1679
0
VERTEX
8
0
10
5854
20
1659
0
VERTEX
8
0
10
5874
20
1659
0
VERTEX
8
0
10
5874
20
1679
0
VERTEX
8
0
10
5874
20
1699
0
VERTEX
8
0
10
5854
20
1699
0
VERTEX
8
0
10
5854
20
1679
0
SEQEND
0
POLYLINE
8
0
62
254
66
1
40
1
41
1
0
VERTEX
8
0
10
5814
20
1639
0
VERTEX
8
0
10
5774
20
1639
0
VERTEX
8
0
10
5774
20
1619
0
VERTEX
8
0
10
5774
20
1559
0
VERTEX
8
0
10
6014
20
1559
0
VERTEX
8
0
10
6014
20
1699
0
VERTEX
8
0
10
5994
20
1699
0
VERTEX
8
0
10
5994
20
1679
0
VERTEX
8
0
10
5954
20
1679
0
VERTEX
8
0
10
5934
20
1679
0
VERTEX
8
0
10
5914
20
1679
0
VERTEX
8
0
10
5914
20
1659
0
VERTEX
8
0
10
5874
20
1659
0
VERTEX
8
0
10
5854
20
1659
0
VERTEX
8
0
10
5854
20
1639
0
VERTEX
8
0
10
5814
20
1639
0
SEQEND
0
POLYLINE
8
0
62
17
66
1
40
1
41
1
0
VERTEX
8
0
10
5774
20
1619
0
VERTEX
8
0
10
5774
20
1639
0
VERTEX
8
0
10
5734
20
1639
0
VERTEX
8
0
10
5734
20
1619
0
VERTEX
8
0
10
5774
20
1619
0
SEQEND
0
POLYLINE
8
0
62
9
66
1
40
1
41
1
0
VERTEX
8
0
10
5814
20
1639
0
VERTEX
8
0
10
5854
20
1639
0
VERTEX
8
0
10
5854
20
1659
0
VERTEX
8
0
10
5814
20
1659
0
VERTEX
8
0
10
5814
20
1639
0
SEQEND
0
POLYLINE
8
0
62
13
66
1
40
1
41
1
0
VERTEX
8
0
10
5774
20
1639
0
VERTEX
8
0
10
5774
20
1659
0
VERTEX
8
0
10
5754
20
1659
0
VERTEX
8
0
10
5734
20
1659
0
VERTEX
8
0
10
5714
20
1659
0
VERTEX
8
0
10
5714
20
1639
0
VERTEX
8
0
10
5714
20
1619
0
VERTEX
8
0
10
5734
20
1619
0
VERTEX
8
0
10
5734
20
1639
0
VERTEX
8
0
10
5774
20
1639
0
SEQEND
0
POLYLINE
8
0
62
13
66
1
40
1
41
1
0
VERTEX
8
0
10
5734
20
1699
0
VERTEX
8
0
10
5734
20
1659
0
VERTEX
8
0
10
5754
20
1659
0
VERTEX
8
0
10
5754
20
1699
0
VERTEX
8
0
10
5734
20
1699
0
SEQEND
0
POLYLINE
8
0
62
13
66
1
40
1
41
1
0
VERTEX
8
0
10
5734
20
1659
0
VERTEX
8
0
10
5734
20
1699
0
VERTEX
8
0
10
5714
20
1699
0
VERTEX
8
0
10
5714
20
1659
0
VERTEX
8
0
10
5734
20
1659
0
SEQEND
0
POLYLINE
8
0
62
13
66
1
40
1
41
1
0
VERTEX
8
0
10
5714
20
1699
0
VERTEX
8
0
10
5694
20
1699
0
VERTEX
8
0
10
5694
20
1679
0
VERTEX
8
0
10
5694
20
1659
0
VERTEX
8
0
10
5714
20
1659
0
VERTEX
8
0
10
5714
20
1699
0
SEQEND
0
POLYLINE
8
0
62
13
66
1
40
1
41
1
0
VERTEX
8
0
10
5714
20
1659
0
VERTEX
8
0
10
5694
20
1659
0
VERTEX
8
0
10
5694
20
1679
0
VERTEX
8
0
10
5674
20
1679
0
VERTEX
8
0
10
5674
20
1639
0
VERTEX
8
0
10
5714
20
1639
0
VERTEX
8
0
10
5714
20
1659
0
SEQEND
0
POLYLINE
8
0
62
13
66
1
40
1
41
1
0
VERTEX
8
0
10
5714
20
1639
0
VERTEX
8
0
10
5674
20
1639
0
VERTEX
8
0
10
5674
20
1619
0
VERTEX
8
0
10
5694
20
1619
0
VERTEX
8
0
10
5714
20
1619
0
VERTEX
8
0
10
5714
20
1639
0
SEQEND
0
POLYLINE
8
0
62
254
66
1
40
1
41
1
0
VERTEX
8
0
10
5774
20
1559
0
VERTEX
8
0
10
5774
20
1500
0
VERTEX
8
0
10
6014
20
1500
0
VERTEX
8
0
10
6014
20
1539
0
VERTEX
8
0
10
6014
20
1559
0
VERTEX
8
0
10
5774
20
1559
0
SEQEND
0
POLYLINE
8
0
62
253
66
1
40
1
41
1
0
VERTEX
8
0
10
5994
20
1679
0
VERTEX
8
0
10
5994
20
1699
0
VERTEX
8
0
10
5954
20
1699
0
VERTEX
8
0
10
5954
20
1679
0
VERTEX
8
0
10
5994
20
1679
0
SEQEND
0
POLYLINE
8
0
62
251
66
1
40
1
41
1
0
VERTEX
8
0
10
6034
20
1699
0
VERTEX
8
0
10
6014
20
1699
0
VERTEX
8
0
10
6014
20
1559
0
VERTEX
8
0
10
6014
20
1539
0
VERTEX
8
0
10
6034
20
1539
0
VERTEX
8
0
10
6034
20
1699
0
SEQEND
0
POLYLINE
8
0
62
252
66
1
40
1
41
1
0
VERTEX
8
0
10
5934
20
1679
0
VERTEX
8
0
10
5934
20
1699
0
VERTEX
8
0
10
5914
20
1699
0
VERTEX
8
0
10
5894
20
1699
0
VERTEX
8
0
10
5894
20
1679
0
VERTEX
8
0
10
5914
20
1679
0
VERTEX
8
0
10
5934
20
1679
0
SEQEND
0
POLYLINE
8
0
62
9
66
1
40
1
41
1
0
VERTEX
8
0
10
5914
20
1679
0
VERTEX
8
0
10
5894
20
1679
0
VERTEX
8
0
10
5874
20
1679
0
VERTEX
8
0
10
5874
20
1659
0
VERTEX
8
0
10
5914
20
1659
0
VERTEX
8
0
10
5914
20
1679
0
SEQEND
0
POLYLINE
8
0
62
251
66
1
40
1
41
1
0
VERTEX
8
0
10
6014
20
1500
0
VERTEX
8
0
10
6014
20
1480
0
VERTEX
8
0
10
6034
20
1480
0
VERTEX
8
0
10
6034
20
1539
0
VERTEX
8
0
10
6014
20
1539
0
VERTEX
8
0
10
6014
20
1500
0
SEQEND
0
POLYLINE
8
0
62
254
66
1
40
1
41
1
0
VERTEX
8
0
10
6014
20
1480
0
VERTEX
8
0
10
6014
20
1500
0
VERTEX
8
0
10
5774
20
1500
0
VERTEX
8
0
10
5774
20
1460
0
VERTEX
8
0
10
6014
20
1460
0
VERTEX
8
0
10
6014
20
1480
0
SEQEND
0
POLYLINE
8
0
62
252
66
1
40
1
41
1
0
VERTEX
8
0
10
6034
20
1480
0
VERTEX
8
0
10
6014
20
1480
0
VERTEX
8
0
10
6014
20
1460
0
VERTEX
8
0
10
6014
20
1440
0
VERTEX
8
0
10
6034
20
1440
0
VERTEX
8
0
10
6034
20
1480
0
SEQEND
0
POLYLINE
8
0
62
8
66
1
40
1
41
1
0
VERTEX
8
0
10
6014
20
1440
0
VERTEX
8
0
10
6014
20
1420
0
VERTEX
8
0
10
6014
20
1400
0
VERTEX
8
0
10
6014
20
1380
0
VERTEX
8
0
10
6034
20
1380
0
VERTEX
8
0
10
6034
20
1440
0
VERTEX
8
0
10
6014
20
1440
0
SEQEND
0
POLYLINE
8
0
62
254
66
1
40
1
41
1
0
VERTEX
8
0
10
6014
20
1420
0
VERTEX
8
0
10
6014
20
1440
0
VERTEX
8
0
10
5774
20
1440
0
VERTEX
8
0
10
5774
20
1420
0
VERTEX
8
0
10
6014
20
1420
0
SEQEND
0
POLYLINE
8
0
62
254
66
1
40
1
41
1
0
VERTEX
8
0
10
6014
20
1440
0
VERTEX
8
0
10
6014
20
1460
0
VERTEX
8
0
10
5774
20
1460
0
VERTEX
8
0
10
5774
20
1440
0
VERTEX
8
0
10
6014
20
1440
0
SEQEND
0
POLYLINE
8
0
62
254
66
1
40
1
41
1
0
VERTEX
8
0
10
6014
20
1380
0
VERTEX
8
0
10
6014
20
1400
0
VERTEX
8
0
10
5774
20
1400
0
VERTEX
8
0
10
5774
20
1380
0
VERTEX
8
0
10
6014
20
1380
0
SEQEND
0
POLYLINE
8
0
62
8
66
1
40
1
41
1
0
VERTEX
8
0
10
6014
20
1360
0
VERTEX
8
0
10
6014
20
1340
0
VERTEX
8
0
10
6034
20
1340
0
VERTEX
8
0
10
6034
20
1380
0
VERTEX
8
0
10
6014
20
1380
0
VERTEX
8
0
10
6014
20
1360
0
SEQEND
0
POLYLINE
8
0
62
254
66
1
40
1
41
1
0
VERTEX
8
0
10
6014
20
1340
0
VERTEX
8
0
10
6014
20
1360
0
VERTEX
8
0
10
5774
20
1360
0
VERTEX
8
0
10
5774
20
1340
0
VERTEX
8
0
10
6014
20
1340
0
SEQEND
0
POLYLINE
8
0
62
254
66
1
40
1
41
1
0
VERTEX
8
0
10
6014
20
1360
0
VERTEX
8
0
10
6014
20
1380
0
VERTEX
8
0
10
5774
20
1380
0
VERTEX
8
0
10
5774
20
1360
0
VERTEX
8
0
10
6014
20
1360
0
SEQEND
0
POLYLINE
8
0
62
8
66
1
40
1
41
1
0
VERTEX
8
0
10
6034
20
1340
0
VERTEX
8
0
10
6014
20
1340
0
VERTEX
8
0
10
6014
20
1320
0
VERTEX
8
0
10
6014
20
1300
0
VERTEX
8
0
10
6034
20
1300
0
VERTEX
8
0
10
6034
20
1340
0
SEQEND
0
POLYLINE
8
0
62
254
66
1
40
1
41
1
0
VERTEX
8
0
10
6014
20
1400
0
VERTEX
8
0
10
6014
20
1420
0
VERTEX
8
0
10
5774
20
1420
0
VERTEX
8
0
10
5774
20
1400
0
VERTEX
8
0
10
6014
20
1400
0
SEQEND
0
POLYLINE
8
0
62
251
66
1
40
1
41
1
0
VERTEX
8
0
10
6014
20
1300
0
VERTEX
8
0
10
6014
20
1280
0
VERTEX
8
0
10
6014
20
1260
0
VERTEX
8
0
10
6034
20
1260
0
VERTEX
8
0
10
6034
20
1300
0
VERTEX
8
0
10
6014
20
1300
0
SEQEND
0
POLYLINE
8
0
62
254
66
1
40
1
41
1
0
VERTEX
8
0
10
6014
20
1280
0
VERTEX
8
0
10
6014
20
1300
0
VERTEX
8
0
10
5774
20
1300
0
VERTEX
8
0
10
5774
20
1280
0
VERTEX
8
0
10
6014
20
1280
0
SEQEND
0
POLYLINE
8
0
62
254
66
1
40
1
41
1
0
VERTEX
8
0
10
6014
20
1300
0
VERTEX
8
0
10
6014
20
1320
0
VERTEX
8
0
10
5774
20
1320
0
VERTEX
8
0
10
5774
20
1300
0
VERTEX
8
0
10
6014
20
1300
0
SEQEND
0
POLYLINE
8
0
62
251
66
1
40
1
41
1
0
VERTEX
8
0
10
6014
20
1240
0
VERTEX
8
0
10
6014
20
1220
0
VERTEX
8
0
10
6034
20
1220
0
VERTEX
8
0
10
6034
20
1260
0
VERTEX
8
0
10
6014
20
1260
0
VERTEX
8
0
10
6014
20
1240
0
SEQEND
0
POLYLINE
8
0
62
254
66
1
40
1
41
1
0
VERTEX
8
0
10
6014
20
1220
0
VERTEX
8
0
10
6014
20
1240
0
VERTEX
8
0
10
5774
20
1240
0
VERTEX
8
0
10
5774
20
1220
0
VERTEX
8
0
10
6014
20
1220
0
SEQEND
0
POLYLINE
8
0
62
254
66
1
40
1
41
1
0
VERTEX
8
0
10
6014
20
1240
0
VERTEX
8
0
10
6014
20
1260
0
VERTEX
8
0
10
5774
20
1260
0
VERTEX
8
0
10
5774
20
1240
0
VERTEX
8
0
10
6014
20
1240
0
SEQEND
0
POLYLINE
8
0
62
254
66
1
40
1
41
1
0
VERTEX
8
0
10
6014
20
1260
0
VERTEX
8
0
10
6014
20
1280
0
VERTEX
8
0
10
5774
20
1280
0
VERTEX
8
0
10
5774
20
1260
0
VERTEX
8
0
10
6014
20
1260
0
SEQEND
0
POLYLINE
8
0
62
251
66
1
40
1
41
1
0
VERTEX
8
0
10
6034
20
1220
0
VERTEX
8
0
10
6014
20
1220
0
VERTEX
8
0
10
6014
20
1200
0
VERTEX
8
0
10
6014
20
1180
0
VERTEX
8
0
10
6034
20
1180
0
VERTEX
8
0
10
6034
20
1220
0
SEQEND
0
POLYLINE
8
0
62
254
66
1
40
1
41
1
0
VERTEX
8
0
10
6014
20
1320
0
VERTEX
8
0
10
6014
20
1340
0
VERTEX
8
0
10
5774
20
1340
0
VERTEX
8
0
10
5774
20
1320
0
VERTEX
8
0
10
6014
20
1320
0
SEQEND
0
POLYLINE
8
0
62
255
66
1
40
1
41
1
0
VERTEX
8
0
10
5774
20
1180
0
VERTEX
8
0
10
5774
20
1160
0
VERTEX
8
0
10
6014
20
1160
0
VERTEX
8
0
10
6014
20
1180
0
VERTEX
8
0
10
5774
20
1180
0
SEQEND
0
POLYLINE
8
0
62
255
66
1
40
1
41
1
0
VERTEX
8
0
10
5774
20
1200
0
VERTEX
8
0
10
5774
20
1180
0
VERTEX
8
0
10
6014
20
1180
0
VERTEX
8
0
10
6014
20
1200
0
VERTEX
8
0
10
5774
20
1200
0
SEQEND
0
POLYLINE
8
0
62
255
66
1
40
1
41
1
0
VERTEX
8
0
10
5774
20
1020
0
VERTEX
8
0
10
5794
20
1020
0
VERTEX
8
0
10
5794
20
960
0
VERTEX
8
0
10
5794
20
920
0
VERTEX
8
0
10
5794
20
880
0
VERTEX
8
0
10
5814
20
880
0
VERTEX
8
0
10
5814
20
840
0
VERTEX
8
0
10
5834
20
840
0
VERTEX
8
0
10
5834
20
820
0
VERTEX
8
0
10
5854
20
820
0
VERTEX
8
0
10
5854
20
800
0
VERTEX
8
0
10
5874
20
800
0
VERTEX
8
0
10
5874
20
780
0
VERTEX
8
0
10
5914
20
780
0
VERTEX
8
0
10
5914
20
760
0
VERTEX
8
0
10
5954
20
760
0
VERTEX
8
0
10
5994
20
760
0
VERTEX
8
0
10
5994
20
740
0
VERTEX
8
0
10
6154
20
740
0
VERTEX
8
0
10
6154
20
760
0
VERTEX
8
0
10
6194
20
760
0
VERTEX
8
0
10
6194
20
940
0
VERTEX
8
0
10
6154
20
940
0
VERTEX
8
0
10
6094
20
940
0
VERTEX
8
0
10
6094
20
960
0
VERTEX
8
0
10
6054
20
960
0
VERTEX
8
0
10
6054
20
980
0
VERTEX
8
0
10
6034
20
980
0
VERTEX
8
0
10
6034
20
1020
0
VERTEX
8
0
10
6014
20
1020
0
VERTEX
8
0
10
6014
20
1140
0
VERTEX
8
0
10
6014
20
1160
0
VERTEX
8
0
10
5774
20
1160
0
VERTEX
8
0
10
5774
20
1020
0
SEQEND
0
POLYLINE
8
0
62
253
66
1
40
1
41
1
0
VERTEX
8
0
10
5794
20
1020
0
VERTEX
8
0
10
5774
20
1020
0
VERTEX
8
0
10
5774
20
960
0
VERTEX
8
0
10
5794
20
960
0
VERTEX
8
0
10
5794
20
1020
0
SEQEND
0
POLYLINE
8
0
62
251
66
1
40
1
41
1
0
VERTEX
8
0
10
6014
20
1180
0
VERTEX
8
0
10
6014
20
1160
0
VERTEX
8
0
10
6014
20
1140
0
VERTEX
8
0
10
6034
20
1140
0
VERTEX
8
0
10
6034
20
1180
0
VERTEX
8
0
10
6014
20
1180
0
SEQEND
0
POLYLINE
8
0
62
251
66
1
40
1
41
1
0
VERTEX
8
0
10
6034
20
1140
0
VERTEX
8
0
10
6014
20
1140
0
VERTEX
8
0
10
6014
20
1020
0
VERTEX
8
0
10
6034
20
1020
0
VERTEX
8
0
10
6034
20
1140
0
SEQEND
0
POLYLINE
8
0
62
255
66
1
40
1
41
1
0
VERTEX
8
0
10
5774
20
1200
0
VERTEX
8
0
10
6014
20
1200
0
VERTEX
8
0
10
6014
20
1220
0
VERTEX
8
0
10
5774
20
1220
0
VERTEX
8
0
10
5774
20
1200
0
SEQEND
0
POLYLINE
8
0
62
251
66
1
40
1
41
1
0
VERTEX
8
0
10
6214
20
960
0
VERTEX
8
0
10
6194
20
960
0
VERTEX
8
0
10
6194
20
940
0
VERTEX
8
0
10
6194
20
760
0
VERTEX
8
0
10
6214
20
760
0
VERTEX
8
0
10
6214
20
960
0
SEQEND
0
POLYLINE
8
0
62
253
66
1
40
1
41
1
0
VERTEX
8
0
10
6194
20
940
0
VERTEX
8
0
10
6194
20
960
0
VERTEX
8
0
10
6154
20
960
0
VERTEX
8
0
10
6154
20
940
0
VERTEX
8
0
10
6194
20
940
0
SEQEND
0
POLYLINE
8
0
62
251
66
1
40
1
41
1
0
VERTEX
8
0
10
6154
20
940
0
VERTEX
8
0
10
6154
20
960
0
VERTEX
8
0
10
6094
20
960
0
VERTEX
8
0
10
6094
20
940
0
VERTEX
8
0
10
6154
20
940
0
SEQEND
0
POLYLINE
8
0
62
252
66
1
40
1
41
1
0
VERTEX
8
0
10
6154
20
760
0
VERTEX
8
0
10
6154
20
740
0
VERTEX
8
0
10
6194
20
740
0
VERTEX
8
0
10
6194
20
760
0
VERTEX
8
0
10
6154
20
760
0
SEQEND
0
POLYLINE
8
0
62
252
66
1
40
1
41
1
0
VERTEX
8
0
10
5954
20
760
0
VERTEX
8
0
10
5954
20
740
0
VERTEX
8
0
10
5994
20
740
0
VERTEX
8
0
10
5994
20
760
0
VERTEX
8
0
10
5954
20
760
0
SEQEND
0
POLYLINE
8
0
62
8
66
1
40
1
41
1
0
VERTEX
8
0
10
5794
20
920
0
VERTEX
8
0
10
5794
20
960
0
VERTEX
8
0
10
5774
20
960
0
VERTEX
8
0
10
5774
20
920
0
VERTEX
8
0
10
5794
20
920
0
SEQEND
0
POLYLINE
8
0
62
12
66
1
40
1
41
1
0
VERTEX
8
0
10
5374
20
860
0
VERTEX
8
0
10
5394
20
860
0
VERTEX
8
0
10
5394
20
880
0
VERTEX
8
0
10
5354
20
880
0
VERTEX
8
0
10
5354
20
840
0
VERTEX
8
0
10
5374
20
840
0
VERTEX
8
0
10
5374
20
860
0
SEQEND
0
POLYLINE
8
0
62
14
66
1
40
1
41
1
0
VERTEX
8
0
10
5354
20
820
0
VERTEX
8
0
10
5354
20
840
0
VERTEX
8
0
10
5314
20
840
0
VERTEX
8
0
10
5314
20
820
0
VERTEX
8
0
10
5354
20
820
0
SEQEND
0
POLYLINE
8
0
62
14
66
1
40
1
41
1
0
VERTEX
8
0
10
5294
20
780
0
VERTEX
8
0
10
5294
20
800
0
VERTEX
8
0
10
5254
20
800
0
VERTEX
8
0
10
5254
20
780
0
VERTEX
8
0
10
5294
20
780
0
SEQEND
0
POLYLINE
8
0
62
14
66
1
40
1
41
1
0
VERTEX
8
0
10
5094
20
940
0
VERTEX
8
0
10
5074
20
940
0
VERTEX
8
0
10
5074
20
900
0
VERTEX
8
0
10
5094
20
900
0
VERTEX
8
0
10
5094
20
920
0
VERTEX
8
0
10
5094
20
940
0
SEQEND
0
POLYLINE
8
0
62
14
66
1
40
1
41
1
0
VERTEX
8
0
10
5074
20
940
0
VERTEX
8
0
10
5074
20
960
0
VERTEX
8
0
10
5034
20
960
0
VERTEX
8
0
10
5014
20
960
0
VERTEX
8
0
10
5014
20
940
0
VERTEX
8
0
10
5054
20
940
0
VERTEX
8
0
10
5074
20
940
0
SEQEND
0
POLYLINE
8
0
62
18
66
1
40
1
41
1
0
VERTEX
8
0
10
5094
20
900
0
VERTEX
8
0
10
5094
20
880
0
VERTEX
8
0
10
5114
20
880
0
VERTEX
8
0
10
5114
20
920
0
VERTEX
8
0
10
5094
20
920
0
VERTEX
8
0
10
5094
20
900
0
SEQEND
0
POLYLINE
8
0
62
12
66
1
40
1
41
1
0
VERTEX
8
0
10
5094
20
880
0
VERTEX
8
0
10
5094
20
900
0
VERTEX
8
0
10
5074
20
900
0
VERTEX
8
0
10
5074
20
940
0
VERTEX
8
0
10
5054
20
940
0
VERTEX
8
0
10
5054
20
900
0
VERTEX
8
0
10
5034
20
900
0
VERTEX
8
0
10
5034
20
860
0
VERTEX
8
0
10
5074
20
860
0
VERTEX
8
0
10
5074
20
880
0
VERTEX
8
0
10
5094
20
880
0
SEQEND
0
POLYLINE
8
0
62
12
66
1
40
1
41
1
0
VERTEX
8
0
10
5094
20
880
0
VERTEX
8
0
10
5074
20
880
0
VERTEX
8
0
10
5074
20
860
0
VERTEX
8
0
10
5074
20
820
0
VERTEX
8
0
10
5054
20
820
0
VERTEX
8
0
10
5054
20
800
0
VERTEX
8
0
10
5134
20
800
0
VERTEX
8
0
10
5134
20
820
0
VERTEX
8
0
10
5114
20
820
0
VERTEX
8
0
10
5114
20
840
0
VERTEX
8
0
10
5094
20
840
0
VERTEX
8
0
10
5094
20
880
0
SEQEND
0
POLYLINE
8
0
62
16
66
1
40
1
41
1
0
VERTEX
8
0
10
5114
20
880
0
VERTEX
8
0
10
5094
20
880
0
VERTEX
8
0
10
5094
20
840
0
VERTEX
8
0
10
5114
20
840
0
VERTEX
8
0
10
5114
20
880
0
SEQEND
0
POLYLINE
8
0
62
16
66
1
40
1
41
1
0
VERTEX
8
0
10
5154
20
840
0
VERTEX
8
0
10
5114
20
840
0
VERTEX
8
0
10
5114
20
820
0
VERTEX
8
0
10
5134
20
820
0
VERTEX
8
0
10
5154
20
820
0
VERTEX
8
0
10
5154
20
840
0
SEQEND
0
POLYLINE
8
0
62
14
66
1
40
1
41
1
0
VERTEX
8
0
10
5174
20
740
0
VERTEX
8
0
10
5214
20
740
0
VERTEX
8
0
10
5214
20
760
0
VERTEX
8
0
10
5174
20
760
0
VERTEX
8
0
10
5174
20
740
0
SEQEND
0
POLYLINE
8
0
62
12
66
1
40
1
41
1
0
VERTEX
8
0
10
5214
20
780
0
VERTEX
8
0
10
5214
20
760
0
VERTEX
8
0
10
5254
20
760
0
VERTEX
8
0
10
5254
20
780
0
VERTEX
8
0
10
5214
20
780
0
SEQEND
0
POLYLINE
8
0
62
16
66
1
40
1
41
1
0
VERTEX
8
0
10
5154
20
840
0
VERTEX
8
0
10
5194
20
840
0
VERTEX
8
0
10
5194
20
860
0
VERTEX
8
0
10
5154
20
860
0
VERTEX
8
0
10
5154
20
840
0
SEQEND
0
POLYLINE
8
0
62
12
66
1
40
1
41
1
0
VERTEX
8
0
10
5174
20
740
0
VERTEX
8
0
10
5134
20
740
0
VERTEX
8
0
10
5134
20
720
0
VERTEX
8
0
10
5154
20
720
0
VERTEX
8
0
10
5174
20
720
0
VERTEX
8
0
10
5174
20
740
0
SEQEND
0
POLYLINE
8
0
62
12
66
1
40
1
41
1
0
VERTEX
8
0
10
5074
20
820
0
VERTEX
8
0
10
5074
20
860
0
VERTEX
8
0
10
5034
20
860
0
VERTEX
8
0
10
5034
20
840
0
VERTEX
8
0
10
5054
20
840
0
VERTEX
8
0
10
5054
20
820
0
VERTEX
8
0
10
5074
20
820
0
SEQEND
0
POLYLINE
8
0
62
16
66
1
40
1
41
1
0
VERTEX
8
0
10
4994
20
920
0
VERTEX
8
0
10
4994
20
960
0
VERTEX
8
0
10
4974
20
960
0
VERTEX
8
0
10
4974
20
920
0
VERTEX
8
0
10
4994
20
920
0
SEQEND
0
POLYLINE
8
0
62
18
66
1
40
1
41
1
0
VERTEX
8
0
10
4994
20
920
0
VERTEX
8
0
10
4974
20
920
0
VERTEX
8
0
10
4974
20
880
0
VERTEX
8
0
10
4994
20
880
0
VERTEX
8
0
10
4994
20
920
0
SEQEND
0
POLYLINE
8
0
62
12
66
1
40
1
41
1
0
VERTEX
8
0
10
5034
20
860
0
VERTEX
8
0
10
5034
20
900
0
VERTEX
8
0
10
5014
20
900
0
VERTEX
8
0
10
5014
20
880
0
VERTEX
8
0
10
5014
20
840
0
VERTEX
8
0
10
5034
20
840
0
VERTEX
8
0
10
5034
20
860
0
SEQEND
0
POLYLINE
8
0
62
16
66
1
40
1
41
1
0
VERTEX
8
0
10
5014
20
880
0
VERTEX
8
0
10
4994
20
880
0
VERTEX
8
0
10
4994
20
840
0
VERTEX
8
0
10
5014
20
840
0
VERTEX
8
0
10
5014
20
880
0
SEQEND
0
POLYLINE
8
0
62
12
66
1
40
1
41
1
0
VERTEX
8
0
10
4894
20
780
0
VERTEX
8
0
10
4874
20
780
0
VERTEX
8
0
10
4854
20
780
0
VERTEX
8
0
10
4854
20
760
0
VERTEX
8
0
10
4894
20
760
0
VERTEX
8
0
10
4894
20
780
0
SEQEND
0
POLYLINE
8
0
62
12
66
1
40
1
41
1
0
VERTEX
8
0
10
4914
20
780
0
VERTEX
8
0
10
4914
20
760
0
VERTEX
8
0
10
4974
20
760
0
VERTEX
8
0
10
4974
20
780
0
VERTEX
8
0
10
4934
20
780
0
VERTEX
8
0
10
4914
20
780
0
SEQEND
0
POLYLINE
8
0
62
16
66
1
40
1
41
1
0
VERTEX
8
0
10
4934
20
800
0
VERTEX
8
0
10
4934
20
780
0
VERTEX
8
0
10
4974
20
780
0
VERTEX
8
0
10
5014
20
780
0
VERTEX
8
0
10
5014
20
800
0
VERTEX
8
0
10
4994
20
800
0
VERTEX
8
0
10
4934
20
800
0
SEQEND
0
POLYLINE
8
0
62
18
66
1
40
1
41
1
0
VERTEX
8
0
10
4874
20
780
0
VERTEX
8
0
10
4874
20
800
0
VERTEX
8
0
10
4834
20
800
0
VERTEX
8
0
10
4834
20
780
0
VERTEX
8
0
10
4854
20
780
0
VERTEX
8
0
10
4874
20
780
0
SEQEND
0
POLYLINE
8
0
62
14
66
1
40
1
41
1
0
VERTEX
8
0
10
5034
20
840
0
VERTEX
8
0
10
5014
20
840
0
VERTEX
8
0
10
5014
20
800
0
VERTEX
8
0
10
5034
20
800
0
VERTEX
8
0
10
5034
20
840
0
SEQEND
0
POLYLINE
8
0
62
18
66
1
40
1
41
1
0
VERTEX
8
0
10
5014
20
800
0
VERTEX
8
0
10
5014
20
840
0
VERTEX
8
0
10
4994
20
840
0
VERTEX
8
0
10
4994
20
800
0
VERTEX
8
0
10
5014
20
800
0
SEQEND
0
POLYLINE
8
0
62
16
66
1
40
1
41
1
0
VERTEX
8
0
10
5054
20
700
0
VERTEX
8
0
10
5014
20
700
0
VERTEX
8
0
10
5014
20
680
0
VERTEX
8
0
10
5034
20
680
0
VERTEX
8
0
10
5054
20
680
0
VERTEX
8
0
10
5054
20
700
0
SEQEND
0
POLYLINE
8
0
62
12
66
1
40
1
41
1
0
VERTEX
8
0
10
5054
20
680
0
VERTEX
8
0
10
5054
20
660
0
VERTEX
8
0
10
5074
20
660
0
VERTEX
8
0
10
5074
20
700
0
VERTEX
8
0
10
5054
20
700
0
VERTEX
8
0
10
5054
20
680
0
SEQEND
0
POLYLINE
8
0
62
18
66
1
40
1
41
1
0
VERTEX
8
0
10
5054
20
660
0
VERTEX
8
0
10
5054
20
680
0
VERTEX
8
0
10
5034
20
680
0
VERTEX
8
0
10
5034
20
640
0
VERTEX
8
0
10
5054
20
640
0
VERTEX
8
0
10
5054
20
660
0
SEQEND
0
POLYLINE
8
0
62
14
66
1
40
1
41
1
0
VERTEX
8
0
10
5014
20
680
0
VERTEX
8
0
10
5014
20
700
0
VERTEX
8
0
10
4934
20
700
0
VERTEX
8
0
10
4934
20
680
0
VERTEX
8
0
10
4994
20
680
0
VERTEX
8
0
10
5014
20
680
0
SEQEND
0
POLYLINE
8
0
62
18
66
1
40
1
41
1
0
VERTEX
8
0
10
4994
20
660
0
VERTEX
8
0
10
4994
20
680
0
VERTEX
8
0
10
4934
20
680
0
VERTEX
8
0
10
4934
20
660
0
VERTEX
8
0
10
4994
20
660
0
SEQEND
0
POLYLINE
8
0
62
14
66
1
40
1
41
1
0
VERTEX
8
0
10
5054
20
640
0
VERTEX
8
0
10
5054
20
620
0
VERTEX
8
0
10
5074
20
620
0
VERTEX
8
0
10
5074
20
660
0
VERTEX
8
0
10
5054
20
660
0
VERTEX
8
0
10
5054
20
640
0
SEQEND
0
POLYLINE
8
0
62
12
66
1
40
1
41
1
0
VERTEX
8
0
10
4934
20
680
0
VERTEX
8
0
10
4934
20
700
0
VERTEX
8
0
10
4894
20
700
0
VERTEX
8
0
10
4894
20
680
0
VERTEX
8
0
10
4914
20
680
0
VERTEX
8
0
10
4934
20
680
0
SEQEND
0
POLYLINE
8
0
62
18
66
1
40
1
41
1
0
VERTEX
8
0
10
4914
20
660
0
VERTEX
8
0
10
4914
20
680
0
VERTEX
8
0
10
4894
20
680
0
VERTEX
8
0
10
4854
20
680
0
VERTEX
8
0
10
4854
20
660
0
VERTEX
8
0
10
4914
20
660
0
SEQEND
0
POLYLINE
8
0
62
12
66
1
40
1
41
1
0
VERTEX
8
0
10
4894
20
680
0
VERTEX
8
0
10
4894
20
700
0
VERTEX
8
0
10
4854
20
700
0
VERTEX
8
0
10
4854
20
680
0
VERTEX
8
0
10
4894
20
680
0
SEQEND
0
POLYLINE
8
0
62
18
66
1
40
1
41
1
0
VERTEX
8
0
10
5054
20
620
0
VERTEX
8
0
10
5054
20
580
0
VERTEX
8
0
10
5074
20
580
0
VERTEX
8
0
10
5074
20
600
0
VERTEX
8
0
10
5074
20
620
0
VERTEX
8
0
10
5054
20
620
0
SEQEND
0
POLYLINE
8
0
62
16
66
1
40
1
41
1
0
VERTEX
8
0
10
5174
20
640
0
VERTEX
8
0
10
5174
20
680
0
VERTEX
8
0
10
5154
20
680
0
VERTEX
8
0
10
5154
20
660
0
VERTEX
8
0
10
5154
20
640
0
VERTEX
8
0
10
5174
20
640
0
SEQEND
0
POLYLINE
8
0
62
18
66
1
40
1
41
1
0
VERTEX
8
0
10
5194
20
600
0
VERTEX
8
0
10
5194
20
640
0
VERTEX
8
0
10
5174
20
640
0
VERTEX
8
0
10
5174
20
600
0
VERTEX
8
0
10
5194
20
600
0
SEQEND
0
POLYLINE
8
0
62
14
66
1
40
1
41
1
0
VERTEX
8
0
10
5174
20
600
0
VERTEX
8
0
10
5174
20
640
0
VERTEX
8
0
10
5154
20
640
0
VERTEX
8
0
10
5154
20
600
0
VERTEX
8
0
10
5174
20
600
0
SEQEND
0
POLYLINE
8
0
62
16
66
1
40
1
41
1
0
VERTEX
8
0
10
5194
20
600
0
VERTEX
8
0
10
5174
20
600
0
VERTEX
8
0
10
5174
20
560
0
VERTEX
8
0
10
5194
20
560
0
VERTEX
8
0
10
5194
20
600
0
SEQEND
0
POLYLINE
8
0
62
12
66
1
40
1
41
1
0
VERTEX
8
0
10
5134
20
660
0
VERTEX
8
0
10
5114
20
660
0
VERTEX
8
0
10
5114
20
700
0
VERTEX
8
0
10
5094
20
700
0
VERTEX
8
0
10
5094
20
620
0
VERTEX
8
0
10
5074
20
620
0
VERTEX
8
0
10
5074
20
600
0
VERTEX
8
0
10
5094
20
600
0
VERTEX
8
0
10
5114
20
600
0
VERTEX
8
0
10
5114
20
620
0
VERTEX
8
0
10
5134
20
620
0
VERTEX
8
0
10
5134
20
660
0
SEQEND
0
POLYLINE
8
0
62
14
66
1
40
1
41
1
0
VERTEX
8
0
10
5134
20
720
0
VERTEX
8
0
10
5134
20
680
0
VERTEX
8
0
10
5154
20
680
0
VERTEX
8
0
10
5154
20
720
0
VERTEX
8
0
10
5134
20
720
0
SEQEND
0
POLYLINE
8
0
62
12
66
1
40
1
41
1
0
VERTEX
8
0
10
5154
20
660
0
VERTEX
8
0
10
5134
20
660
0
VERTEX
8
0
10
5134
20
620
0
VERTEX
8
0
10
5134
20
600
0
VERTEX
8
0
10
5154
20
600
0
VERTEX
8
0
10
5154
20
640
0
VERTEX
8
0
10
5154
20
660
0
SEQEND
0
POLYLINE
8
0
62
14
66
1
40
1
41
1
0
VERTEX
8
0
10
5094
20
600
0
VERTEX
8
0
10
5074
20
600
0
VERTEX
8
0
10
5074
20
580
0
VERTEX
8
0
10
5074
20
560
0
VERTEX
8
0
10
5094
20
560
0
VERTEX
8
0
10
5094
20
600
0
SEQEND
0
POLYLINE
8
0
62
12
66
1
40
1
41
1
0
VERTEX
8
0
10
5154
20
600
0
VERTEX
8
0
10
5134
20
600
0
VERTEX
8
0
10
5134
20
580
0
VERTEX
8
0
10
5154
20
580
0
VERTEX
8
0
10
5154
20
560
0
VERTEX
8
0
10
5154
20
520
0
VERTEX
8
0
10
5174
20
520
0
VERTEX
8
0
10
5174
20
560
0
VERTEX
8
0
10
5174
20
600
0
VERTEX
8
0
10
5154
20
600
0
SEQEND
0
POLYLINE
8
0
62
12
66
1
40
1
41
1
0
VERTEX
8
0
10
5134
20
600
0
VERTEX
8
0
10
5134
20
620
0
VERTEX
8
0
10
5114
20
620
0
VERTEX
8
0
10
5114
20
600
0
VERTEX
8
0
10
5114
20
560
0
VERTEX
8
0
10
5094
20
560
0
VERTEX
8
0
10
5094
20
520
0
VERTEX
8
0
10
5114
20
520
0
VERTEX
8
0
10
5114
20
480
0
VERTEX
8
0
10
5134
20
480
0
VERTEX
8
0
10
5134
20
520
0
VERTEX
8
0
10
5134
20
560
0
VERTEX
8
0
10
5154
20
560
0
VERTEX
8
0
10
5154
20
580
0
VERTEX
8
0
10
5134
20
580
0
VERTEX
8
0
10
5134
20
600
0
SEQEND
0
POLYLINE
8
0
62
12
66
1
40
1
41
1
0
VERTEX
8
0
10
5114
20
600
0
VERTEX
8
0
10
5094
20
600
0
VERTEX
8
0
10
5094
20
560
0
VERTEX
8
0
10
5114
20
560
0
VERTEX
8
0
10
5114
20
600
0
SEQEND
0
POLYLINE
8
0
62
12
66
1
40
1
41
1
0
VERTEX
8
0
10
5154
20
560
0
VERTEX
8
0
10
5134
20
560
0
VERTEX
8
0
10
5134
20
520
0
VERTEX
8
0
10
5154
20
520
0
VERTEX
8
0
10
5154
20
560
0
SEQEND
0
POLYLINE
8
0
62
18
66
1
40
1
41
1
0
VERTEX
8
0
10
5094
20
560
0
VERTEX
8
0
10
5074
20
560
0
VERTEX
8
0
10
5074
20
520
0
VERTEX
8
0
10
5094
20
520
0
VERTEX
8
0
10
5094
20
560
0
SEQEND
0
POLYLINE
8
0
62
16
66
1
40
1
41
1
0
VERTEX
8
0
10
5094
20
520
0
VERTEX
8
0
10
5094
20
480
0
VERTEX
8
0
10
5114
20
480
0
VERTEX
8
0
10
5114
20
520
0
VERTEX
8
0
10
5094
20
520
0
SEQEND
0
POLYLINE
8
0
62
14
66
1
40
1
41
1
0
VERTEX
8
0
10
5134
20
520
0
VERTEX
8
0
10
5134
20
480
0
VERTEX
8
0
10
5134
20
440
0
VERTEX
8
0
10
5134
20
400
0
VERTEX
8
0
10
5154
20
400
0
VERTEX
8
0
10
5154
20
420
0
VERTEX
8
0
10
5154
20
460
0
VERTEX
8
0
10
5174
20
460
0
VERTEX
8
0
10
5174
20
500
0
VERTEX
8
0
10
5154
20
500
0
VERTEX
8
0
10
5154
20
520
0
VERTEX
8
0
10
5134
20
520
0
SEQEND
0
POLYLINE
8
0
62
14
66
1
40
1
41
1
0
VERTEX
8
0
10
5154
20
520
0
VERTEX
8
0
10
5154
20
500
0
VERTEX
8
0
10
5174
20
500
0
VERTEX
8
0
10
5194
20
500
0
VERTEX
8
0
10
5194
20
520
0
VERTEX
8
0
10
5194
20
560
0
VERTEX
8
0
10
5174
20
560
0
VERTEX
8
0
10
5174
20
520
0
VERTEX
8
0
10
5154
20
520
0
SEQEND
0
POLYLINE
8
0
62
14
66
1
40
1
41
1
0
VERTEX
8
0
10
5134
20
480
0
VERTEX
8
0
10
5114
20
480
0
VERTEX
8
0
10
5114
20
440
0
VERTEX
8
0
10
5134
20
440
0
VERTEX
8
0
10
5134
20
480
0
SEQEND
0
POLYLINE
8
0
62
18
66
1
40
1
41
1
0
VERTEX
8
0
10
5114
20
480
0
VERTEX
8
0
10
5094
20
480
0
VERTEX
8
0
10
5094
20
440
0
VERTEX
8
0
10
5114
20
440
0
VERTEX
8
0
10
5114
20
480
0
SEQEND
0
POLYLINE
8
0
62
18
66
1
40
1
41
1
0
VERTEX
8
0
10
5214
20
560
0
VERTEX
8
0
10
5194
20
560
0
VERTEX
8
0
10
5194
20
520
0
VERTEX
8
0
10
5214
20
520
0
VERTEX
8
0
10
5214
20
560
0
SEQEND
0
POLYLINE
8
0
62
16
66
1
40
1
41
1
0
VERTEX
8
0
10
5214
20
480
0
VERTEX
8
0
10
5214
20
520
0
VERTEX
8
0
10
5194
20
520
0
VERTEX
8
0
10
5194
20
500
0
VERTEX
8
0
10
5194
20
480
0
VERTEX
8
0
10
5214
20
480
0
SEQEND
0
POLYLINE
8
0
62
14
66
1
40
1
41
1
0
VERTEX
8
0
10
5214
20
480
0
VERTEX
8
0
10
5194
20
480
0
VERTEX
8
0
10
5194
20
460
0
VERTEX
8
0
10
5174
20
460
0
VERTEX
8
0
10
5154
20
460
0
VERTEX
8
0
10
5154
20
420
0
VERTEX
8
0
10
5194
20
420
0
VERTEX
8
0
10
5194
20
400
0
VERTEX
8
0
10
5194
20
380
0
VERTEX
8
0
10
5214
20
380
0
VERTEX
8
0
10
5214
20
400
0
VERTEX
8
0
10
5214
20
440
0
VERTEX
8
0
10
5214
20
480
0
SEQEND
0
POLYLINE
8
0
62
12
66
1
40
1
41
1
0
VERTEX
8
0
10
5194
20
480
0
VERTEX
8
0
10
5194
20
500
0
VERTEX
8
0
10
5174
20
500
0
VERTEX
8
0
10
5174
20
460
0
VERTEX
8
0
10
5194
20
460
0
VERTEX
8
0
10
5194
20
480
0
SEQEND
0
POLYLINE
8
0
62
18
66
1
40
1
41
1
0
VERTEX
8
0
10
5234
20
480
0
VERTEX
8
0
10
5214
20
480
0
VERTEX
8
0
10
5214
20
440
0
VERTEX
8
0
10
5234
20
440
0
VERTEX
8
0
10
5234
20
480
0
SEQEND
0
POLYLINE
8
0
62
7
66
1
40
1
41
1
0
VERTEX
8
0
10
5254
20
420
0
VERTEX
8
0
10
5234
20
420
0
VERTEX
8
0
10
5234
20
400
0
VERTEX
8
0
10
5234
20
380
0
VERTEX
8
0
10
5254
20
380
0
VERTEX
8
0
10
5254
20
420
0
SEQEND
0
POLYLINE
8
0
62
16
66
1
40
1
41
1
0
VERTEX
8
0
10
5234
20
420
0
VERTEX
8
0
10
5234
20
440
0
VERTEX
8
0
10
5214
20
440
0
VERTEX
8
0
10
5214
20
400
0
VERTEX
8
0
10
5234
20
400
0
VERTEX
8
0
10
5234
20
420
0
SEQEND
0
POLYLINE
8
0
62
14
66
1
40
1
41
1
0
VERTEX
8
0
10
5174
20
400
0
VERTEX
8
0
10
5194
20
400
0
VERTEX
8
0
10
5194
20
420
0
VERTEX
8
0
10
5154
20
420
0
VERTEX
8
0
10
5154
20
400
0
VERTEX
8
0
10
5134
20
400
0
VERTEX
8
0
10
5134
20
380
0
VERTEX
8
0
10
5154
20
380
0
VERTEX
8
0
10
5154
20
340
0
VERTEX
8
0
10
5174
20
340
0
VERTEX
8
0
10
5174
20
360
0
VERTEX
8
0
10
5174
20
400
0
SEQEND
0
POLYLINE
8
0
62
14
66
1
40
1
41
1
0
VERTEX
8
0
10
5194
20
400
0
VERTEX
8
0
10
5174
20
400
0
VERTEX
8
0
10
5174
20
360
0
VERTEX
8
0
10
5214
20
360
0
VERTEX
8
0
10
5214
20
380
0
VERTEX
8
0
10
5194
20
380
0
VERTEX
8
0
10
5194
20
400
0
SEQEND
0
POLYLINE
8
0
62
16
66
1
40
1
41
1
0
VERTEX
8
0
10
5214
20
400
0
VERTEX
8
0
10
5214
20
380
0
VERTEX
8
0
10
5214
20
360
0
VERTEX
8
0
10
5214
20
320
0
VERTEX
8
0
10
5214
20
300
0
VERTEX
8
0
10
5234
20
300
0
VERTEX
8
0
10
5234
20
340
0
VERTEX
8
0
10
5234
20
380
0
VERTEX
8
0
10
5234
20
400
0
VERTEX
8
0
10
5214
20
400
0
SEQEND
0
POLYLINE
8
0
62
16
66
1
40
1
41
1
0
VERTEX
8
0
10
5214
20
360
0
VERTEX
8
0
10
5174
20
360
0
VERTEX
8
0
10
5174
20
340
0
VERTEX
8
0
10
5154
20
340
0
VERTEX
8
0
10
5154
20
300
0
VERTEX
8
0
10
5174
20
300
0
VERTEX
8
0
10
5194
20
300
0
VERTEX
8
0
10
5194
20
320
0
VERTEX
8
0
10
5214
20
320
0
VERTEX
8
0
10
5214
20
360
0
SEQEND
0
POLYLINE
8
0
62
18
66
1
40
1
41
1
0
VERTEX
8
0
10
5254
20
380
0
VERTEX
8
0
10
5234
20
380
0
VERTEX
8
0
10
5234
20
340
0
VERTEX
8
0
10
5254
20
340
0
VERTEX
8
0
10
5254
20
380
0
SEQEND
0
POLYLINE
8
0
62
16
66
1
40
1
41
1
0
VERTEX
8
0
10
5134
20
440
0
VERTEX
8
0
10
5114
20
440
0
VERTEX
8
0
10
5114
20
400
0
VERTEX
8
0
10
5134
20
400
0
VERTEX
8
0
10
5134
20
440
0
SEQEND
0
POLYLINE
8
0
62
18
66
1
40
1
41
1
0
VERTEX
8
0
10
5134
20
400
0
VERTEX
8
0
10
5114
20
400
0
VERTEX
8
0
10
5114
20
360
0
VERTEX
8
0
10
5134
20
360
0
VERTEX
8
0
10
5134
20
380
0
VERTEX
8
0
10
5134
20
400
0
SEQEND
0
POLYLINE
8
0
62
16
66
1
40
1
41
1
0
VERTEX
8
0
10
5134
20
380
0
VERTEX
8
0
10
5134
20
360
0
VERTEX
8
0
10
5134
20
340
0
VERTEX
8
0
10
5154
20
340
0
VERTEX
8
0
10
5154
20
380
0
VERTEX
8
0
10
5134
20
380
0
SEQEND
0
POLYLINE
8
0
62
18
66
1
40
1
41
1
0
VERTEX
8
0
10
5154
20
300
0
VERTEX
8
0
10
5154
20
340
0
VERTEX
8
0
10
5134
20
340
0
VERTEX
8
0
10
5134
20
300
0
VERTEX
8
0
10
5154
20
300
0
SEQEND
0
POLYLINE
8
0
62
18
66
1
40
1
41
1
0
VERTEX
8
0
10
5154
20
300
0
VERTEX
8
0
10
5154
20
260
0
VERTEX
8
0
10
5174
20
260
0
VERTEX
8
0
10
5174
20
300
0
VERTEX
8
0
10
5154
20
300
0
SEQEND
0
POLYLINE
8
0
62
16
66
1
40
1
41
1
0
VERTEX
8
0
10
5234
20
340
0
VERTEX
8
0
10
5234
20
300
0
VERTEX
8
0
10
5234
20
280
0
VERTEX
8
0
10
5234
20
260
0
VERTEX
8
0
10
5234
20
240
0
VERTEX
8
0
10
5254
20
240
0
VERTEX
8
0
10
5254
20
260
0
VERTEX
8
0
10
5254
20
300
0
VERTEX
8
0
10
5254
20
340
0
VERTEX
8
0
10
5234
20
340
0
SEQEND
0
POLYLINE
8
0
62
7
66
1
40
1
41
1
0
VERTEX
8
0
10
5254
20
340
0
VERTEX
8
0
10
5254
20
300
0
VERTEX
8
0
10
5274
20
300
0
VERTEX
8
0
10
5274
20
340
0
VERTEX
8
0
10
5254
20
340
0
SEQEND
0
POLYLINE
8
0
62
16
66
1
40
1
41
1
0
VERTEX
8
0
10
5214
20
300
0
VERTEX
8
0
10
5214
20
320
0
VERTEX
8
0
10
5194
20
320
0
VERTEX
8
0
10
5194
20
300
0
VERTEX
8
0
10
5194
20
280
0
VERTEX
8
0
10
5234
20
280
0
VERTEX
8
0
10
5234
20
300
0
VERTEX
8
0
10
5214
20
300
0
SEQEND
0
POLYLINE
8
0
62
16
66
1
40
1
41
1
0
VERTEX
8
0
10
5194
20
300
0
VERTEX
8
0
10
5174
20
300
0
VERTEX
8
0
10
5174
20
260
0
VERTEX
8
0
10
5194
20
260
0
VERTEX
8
0
10
5194
20
280
0
VERTEX
8
0
10
5194
20
300
0
SEQEND
0
POLYLINE
8
0
62
16
66
1
40
1
41
1
0
VERTEX
8
0
10
5194
20
280
0
VERTEX
8
0
10
5194
20
260
0
VERTEX
8
0
10
5174
20
260
0
VERTEX
8
0
10
5174
20
240
0
VERTEX
8
0
10
5194
20
240
0
VERTEX
8
0
10
5194
20
220
0
VERTEX
8
0
10
5214
20
220
0
VERTEX
8
0
10
5214
20
260
0
VERTEX
8
0
10
5234
20
260
0
VERTEX
8
0
10
5234
20
280
0
VERTEX
8
0
10
5194
20
280
0
SEQEND
0
POLYLINE
8
0
62
18
66
1
40
1
41
1
0
VERTEX
8
0
10
5194
20
240
0
VERTEX
8
0
10
5174
20
240
0
VERTEX
8
0
10
5174
20
220
0
VERTEX
8
0
10
5174
20
200
0
VERTEX
8
0
10
5194
20
200
0
VERTEX
8
0
10
5194
20
220
0
VERTEX
8
0
10
5194
20
240
0
SEQEND
0
POLYLINE
8
0
62
18
66
1
40
1
41
1
0
VERTEX
8
0
10
5174
20
240
0
VERTEX
8
0
10
5174
20
260
0
VERTEX
8
0
10
5154
20
260
0
VERTEX
8
0
10
5154
20
220
0
VERTEX
8
0
10
5174
20
220
0
VERTEX
8
0
10
5174
20
240
0
SEQEND
0
POLYLINE
8
0
62
18
66
1
40
1
41
1
0
VERTEX
8
0
10
5254
20
260
0
VERTEX
8
0
10
5254
20
240
0
VERTEX
8
0
10
5254
20
220
0
VERTEX
8
0
10
5214
20
220
0
VERTEX
8
0
10
5214
20
200
0
VERTEX
8
0
10
5254
20
200
0
VERTEX
8
0
10
5254
20
180
0
VERTEX
8
0
10
5274
20
180
0
VERTEX
8
0
10
5274
20
200
0
VERTEX
8
0
10
5274
20
240
0
VERTEX
8
0
10
5274
20
260
0
VERTEX
8
0
10
5254
20
260
0
SEQEND
0
POLYLINE
8
0
62
16
66
1
40
1
41
1
0
VERTEX
8
0
10
5254
20
240
0
VERTEX
8
0
10
5234
20
240
0
VERTEX
8
0
10
5234
20
260
0
VERTEX
8
0
10
5214
20
260
0
VERTEX
8
0
10
5214
20
220
0
VERTEX
8
0
10
5254
20
220
0
VERTEX
8
0
10
5254
20
240
0
SEQEND
0
POLYLINE
8
0
62
18
66
1
40
1
41
1
0
VERTEX
8
0
10
5254
20
300
0
VERTEX
8
0
10
5254
20
260
0
VERTEX
8
0
10
5274
20
260
0
VERTEX
8
0
10
5274
20
300
0
VERTEX
8
0
10
5254
20
300
0
SEQEND
0
POLYLINE
8
0
62
18
66
1
40
1
41
1
0
VERTEX
8
0
10
5254
20
180
0
VERTEX
8
0
10
5254
20
200
0
VERTEX
8
0
10
5214
20
200
0
VERTEX
8
0
10
5214
20
180
0
VERTEX
8
0
10
5194
20
180
0
VERTEX
8
0
10
5194
20
160
0
VERTEX
8
0
10
5214
20
160
0
VERTEX
8
0
10
5214
20
120
0
VERTEX
8
0
10
5234
20
120
0
VERTEX
8
0
10
5234
20
140
0
VERTEX
8
0
10
5234
20
160
0
VERTEX
8
0
10
5274
20
160
0
VERTEX
8
0
10
5274
20
180
0
VERTEX
8
0
10
5254
20
180
0
SEQEND
0
POLYLINE
8
0
62
16
66
1
40
1
41
1
0
VERTEX
8
0
10
5214
20
220
0
VERTEX
8
0
10
5194
20
220
0
VERTEX
8
0
10
5194
20
200
0
VERTEX
8
0
10
5194
20
180
0
VERTEX
8
0
10
5214
20
180
0
VERTEX
8
0
10
5214
20
200
0
VERTEX
8
0
10
5214
20
220
0
SEQEND
0
POLYLINE
8
0
62
18
66
1
40
1
41
1
0
VERTEX
8
0
10
5194
20
200
0
VERTEX
8
0
10
5174
20
200
0
VERTEX
8
0
10
5174
20
160
0
VERTEX
8
0
10
5194
20
160
0
VERTEX
8
0
10
5194
20
180
0
VERTEX
8
0
10
5194
20
200
0
SEQEND
0
POLYLINE
8
0
62
18
66
1
40
1
41
1
0
VERTEX
8
0
10
5214
20
120
0
VERTEX
8
0
10
5214
20
160
0
VERTEX
8
0
10
5194
20
160
0
VERTEX
8
0
10
5194
20
120
0
VERTEX
8
0
10
5214
20
120
0
SEQEND
0
POLYLINE
8
0
62
7
66
1
40
1
41
1
0
VERTEX
8
0
10
5214
20
120
0
VERTEX
8
0
10
5194
20
120
0
VERTEX
8
0
10
5194
20
80
0
VERTEX
8
0
10
5214
20
80
0
VERTEX
8
0
10
5214
20
120
0
SEQEND
0
POLYLINE
8
0
62
18
66
1
40
1
41
1
0
VERTEX
8
0
10
5234
20
160
0
VERTEX
8
0
10
5234
20
140
0
VERTEX
8
0
10
5274
20
140
0
VERTEX
8
0
10
5274
20
160
0
VERTEX
8
0
10
5234
20
160
0
SEQEND
0
POLYLINE
8
0
62
18
66
1
40
1
41
1
0
VERTEX
8
0
10
5234
20
140
0
VERTEX
8
0
10
5234
20
120
0
VERTEX
8
0
10
5214
20
120
0
VERTEX
8
0
10
5214
20
80
0
VERTEX
8
0
10
5254
20
80
0
VERTEX
8
0
10
5254
20
100
0
VERTEX
8
0
10
5294
20
100
0
VERTEX
8
0
10
5294
20
140
0
VERTEX
8
0
10
5294
20
180
0
VERTEX
8
0
10
5294
20
200
0
VERTEX
8
0
10
5274
20
200
0
VERTEX
8
0
10
5274
20
180
0
VERTEX
8
0
10
5274
20
160
0
VERTEX
8
0
10
5274
20
140
0
VERTEX
8
0
10
5234
20
140
0
SEQEND
0
POLYLINE
8
0
62
18
66
1
40
1
41
1
0
VERTEX
8
0
10
5254
20
100
0
VERTEX
8
0
10
5254
20
80
0
VERTEX
8
0
10
5294
20
80
0
VERTEX
8
0
10
5294
20
100
0
VERTEX
8
0
10
5254
20
100
0
SEQEND
0
POLYLINE
8
0
62
7
66
1
40
1
41
1
0
VERTEX
8
0
10
5214
20
80
0
VERTEX
8
0
10
5214
20
40
0
VERTEX
8
0
10
5234
20
40
0
VERTEX
8
0
10
5314
20
40
0
VERTEX
8
0
10
5314
20
140
0
VERTEX
8
0
10
5294
20
140
0
VERTEX
8
0
10
5294
20
100
0
VERTEX
8
0
10
5294
20
80
0
VERTEX
8
0
10
5254
20
80
0
VERTEX
8
0
10
5214
20
80
0
SEQEND
0
POLYLINE
8
0
62
7
66
1
40
1
41
1
0
VERTEX
8
0
10
5254
20
0
0
VERTEX
8
0
10
5254
20
20
0
VERTEX
8
0
10
5314
20
20
0
VERTEX
8
0
10
5314
20
40
0
VERTEX
8
0
10
5234
20
40
0
VERTEX
8
0
10
5234
20
0
0
VERTEX
8
0
10
5254
20
0
0
SEQEND
0
POLYLINE
8
0
62
7
66
1
40
1
41
1
0
VERTEX
8
0
10
5294
20
240
0
VERTEX
8
0
10
5274
20
240
0
VERTEX
8
0
10
5274
20
200
0
VERTEX
8
0
10
5294
20
200
0
VERTEX
8
0
10
5294
20
240
0
SEQEND
0
POLYLINE
8
0
62
7
66
1
40
1
41
1
0
VERTEX
8
0
10
5314
20
180
0
VERTEX
8
0
10
5294
20
180
0
VERTEX
8
0
10
5294
20
140
0
VERTEX
8
0
10
5314
20
140
0
VERTEX
8
0
10
5314
20
180
0
SEQEND
0
POLYLINE
8
0
62
12
66
1
40
1
41
1
0
VERTEX
8
0
10
4754
20
800
0
VERTEX
8
0
10
4714
20
800
0
VERTEX
8
0
10
4714
20
780
0
VERTEX
8
0
10
4754
20
780
0
VERTEX
8
0
10
4754
20
800
0
SEQEND
0
POLYLINE
8
0
62
16
66
1
40
1
41
1
0
VERTEX
8
0
10
4714
20
800
0
VERTEX
8
0
10
4714
20
820
0
VERTEX
8
0
10
4674
20
820
0
VERTEX
8
0
10
4674
20
800
0
VERTEX
8
0
10
4714
20
800
0
SEQEND
0
POLYLINE
8
0
62
12
66
1
40
1
41
1
0
VERTEX
8
0
10
4674
20
800
0
VERTEX
8
0
10
4674
20
820
0
VERTEX
8
0
10
4634
20
820
0
VERTEX
8
0
10
4634
20
800
0
VERTEX
8
0
10
4674
20
800
0
SEQEND
0
POLYLINE
8
0
62
16
66
1
40
1
41
1
0
VERTEX
8
0
10
4754
20
800
0
VERTEX
8
0
10
4754
20
780
0
VERTEX
8
0
10
4794
20
780
0
VERTEX
8
0
10
4814
20
780
0
VERTEX
8
0
10
4814
20
800
0
VERTEX
8
0
10
4754
20
800
0
SEQEND
0
POLYLINE
8
0
62
12
66
1
40
1
41
1
0
VERTEX
8
0
10
4794
20
780
0
VERTEX
8
0
10
4794
20
760
0
VERTEX
8
0
10
4854
20
760
0
VERTEX
8
0
10
4854
20
780
0
VERTEX
8
0
10
4834
20
780
0
VERTEX
8
0
10
4814
20
780
0
VERTEX
8
0
10
4794
20
780
0
SEQEND
0
POLYLINE
8
0
62
12
66
1
40
1
41
1
0
VERTEX
8
0
10
4494
20
920
0
VERTEX
8
0
10
4474
20
920
0
VERTEX
8
0
10
4474
20
880
0
VERTEX
8
0
10
4514
20
880
0
VERTEX
8
0
10
4514
20
900
0
VERTEX
8
0
10
4494
20
900
0
VERTEX
8
0
10
4494
20
920
0
SEQEND
0
POLYLINE
8
0
62
16
66
1
40
1
41
1
0
VERTEX
8
0
10
4474
20
800
0
VERTEX
8
0
10
4474
20
820
0
VERTEX
8
0
10
4434
20
820
0
VERTEX
8
0
10
4434
20
800
0
VERTEX
8
0
10
4474
20
800
0
SEQEND
0
POLYLINE
8
0
62
18
66
1
40
1
41
1
0
VERTEX
8
0
10
4494
20
780
0
VERTEX
8
0
10
4494
20
760
0
VERTEX
8
0
10
4534
20
760
0
VERTEX
8
0
10
4534
20
780
0
VERTEX
8
0
10
4494
20
780
0
SEQEND
0
POLYLINE
8
0
62
18
66
1
40
1
41
1
0
VERTEX
8
0
10
4534
20
760
0
VERTEX
8
0
10
4534
20
740
0
VERTEX
8
0
10
4574
20
740
0
VERTEX
8
0
10
4574
20
760
0
VERTEX
8
0
10
4534
20
760
0
SEQEND
0
POLYLINE
8
0
62
12
66
1
40
1
41
1
0
VERTEX
8
0
10
4634
20
820
0
VERTEX
8
0
10
4634
20
840
0
VERTEX
8
0
10
4594
20
840
0
VERTEX
8
0
10
4594
20
820
0
VERTEX
8
0
10
4634
20
820
0
SEQEND
0
POLYLINE
8
0
62
12
66
1
40
1
41
1
0
VERTEX
8
0
10
4654
20
740
0
VERTEX
8
0
10
4614
20
740
0
VERTEX
8
0
10
4614
20
720
0
VERTEX
8
0
10
4634
20
720
0
VERTEX
8
0
10
4654
20
720
0
VERTEX
8
0
10
4654
20
740
0
SEQEND
0
POLYLINE
8
0
62
18
66
1
40
1
41
1
0
VERTEX
8
0
10
4614
20
740
0
VERTEX
8
0
10
4574
20
740
0
VERTEX
8
0
10
4574
20
720
0
VERTEX
8
0
10
4614
20
720
0
VERTEX
8
0
10
4614
20
740
0
SEQEND
0
POLYLINE
8
0
62
12
66
1
40
1
41
1
0
VERTEX
8
0
10
4554
20
840
0
VERTEX
8
0
10
4594
20
840
0
VERTEX
8
0
10
4594
20
860
0
VERTEX
8
0
10
4554
20
860
0
VERTEX
8
0
10
4554
20
840
0
SEQEND
0
POLYLINE
8
0
62
18
66
1
40
1
41
1
0
VERTEX
8
0
10
4634
20
720
0
VERTEX
8
0
10
4634
20
700
0
VERTEX
8
0
10
4674
20
700
0
VERTEX
8
0
10
4674
20
720
0
VERTEX
8
0
10
4654
20
720
0
VERTEX
8
0
10
4634
20
720
0
SEQEND
0
POLYLINE
8
0
62
18
66
1
40
1
41
1
0
VERTEX
8
0
10
4834
20
680
0
VERTEX
8
0
10
4814
20
680
0
VERTEX
8
0
10
4794
20
680
0
VERTEX
8
0
10
4794
20
660
0
VERTEX
8
0
10
4834
20
660
0
VERTEX
8
0
10
4834
20
680
0
SEQEND
0
POLYLINE
8
0
62
14
66
1
40
1
41
1
0
VERTEX
8
0
10
4814
20
680
0
VERTEX
8
0
10
4814
20
700
0
VERTEX
8
0
10
4754
20
700
0
VERTEX
8
0
10
4754
20
680
0
VERTEX
8
0
10
4794
20
680
0
VERTEX
8
0
10
4814
20
680
0
SEQEND
0
POLYLINE
8
0
62
16
66
1
40
1
41
1
0
VERTEX
8
0
10
4754
20
700
0
VERTEX
8
0
10
4714
20
700
0
VERTEX
8
0
10
4714
20
680
0
VERTEX
8
0
10
4754
20
680
0
VERTEX
8
0
10
4754
20
700
0
SEQEND
0
POLYLINE
8
0
62
14
66
1
40
1
41
1
0
VERTEX
8
0
10
4714
20
700
0
VERTEX
8
0
10
4714
20
720
0
VERTEX
8
0
10
4674
20
720
0
VERTEX
8
0
10
4674
20
700
0
VERTEX
8
0
10
4714
20
700
0
SEQEND
0
POLYLINE
8
0
62
14
66
1
40
1
41
1
0
VERTEX
8
0
10
4354
20
900
0
VERTEX
8
0
10
4354
20
880
0
VERTEX
8
0
10
4374
20
880
0
VERTEX
8
0
10
4374
20
860
0
VERTEX
8
0
10
4394
20
860
0
VERTEX
8
0
10
4394
20
900
0
VERTEX
8
0
10
4374
20
900
0
VERTEX
8
0
10
4354
20
900
0
SEQEND
0
POLYLINE
8
0
62
16
66
1
40
1
41
1
0
VERTEX
8
0
10
4414
20
860
0
VERTEX
8
0
10
4394
20
860
0
VERTEX
8
0
10
4394
20
820
0
VERTEX
8
0
10
4434
20
820
0
VERTEX
8
0
10
4434
20
840
0
VERTEX
8
0
10
4414
20
840
0
VERTEX
8
0
10
4414
20
860
0
SEQEND
0
POLYLINE
8
0
62
254
66
1
40
1
41
1
0
VERTEX
8
0
10
1615
20
2339
0
VERTEX
8
0
10
1615
20
2219
0
VERTEX
8
0
10
1635
20
2219
0
VERTEX
8
0
10
1635
20
2339
0
VERTEX
8
0
10
1615
20
2339
0
SEQEND
0
POLYLINE
8
0
62
254
66
1
40
1
41
1
0
VERTEX
8
0
10
1615
20
2219
0
VERTEX
8
0
10
1615
20
2139
0
VERTEX
8
0
10
1635
20
2139
0
VERTEX
8
0
10
1635
20
2159
0
VERTEX
8
0
10
1635
20
2199
0
VERTEX
8
0
10
1635
20
2219
0
VERTEX
8
0
10
1615
20
2219
0
SEQEND
0
POLYLINE
8
0
62
255
66
1
40
1
41
1
0
VERTEX
8
0
10
1915
20
2539
0
VERTEX
8
0
10
1895
20
2539
0
VERTEX
8
0
10
1895
20
2499
0
VERTEX
8
0
10
1875
20
2499
0
VERTEX
8
0
10
1875
20
2479
0
VERTEX
8
0
10
1855
20
2479
0
VERTEX
8
0
10
1855
20
2459
0
VERTEX
8
0
10
1835
20
2459
0
VERTEX
8
0
10
1835
20
2439
0
VERTEX
8
0
10
1795
20
2439
0
VERTEX
8
0
10
1795
20
2419
0
VERTEX
8
0
10
1775
20
2419
0
VERTEX
8
0
10
1775
20
2399
0
VERTEX
8
0
10
1735
20
2399
0
VERTEX
8
0
10
1735
20
2379
0
VERTEX
8
0
10
1695
20
2379
0
VERTEX
8
0
10
1695
20
2359
0
VERTEX
8
0
10
1655
20
2359
0
VERTEX
8
0
10
1655
20
2339
0
VERTEX
8
0
10
1635
20
2339
0
VERTEX
8
0
10
1635
20
2219
0
VERTEX
8
0
10
1635
20
2199
0
VERTEX
8
0
10
2115
20
2199
0
VERTEX
8
0
10
2115
20
2559
0
VERTEX
8
0
10
1915
20
2559
0
VERTEX
8
0
10
1915
20
2539
0
SEQEND
0
POLYLINE
8
0
62
255
66
1
40
1
41
1
0
VERTEX
8
0
10
1635
20
2199
0
VERTEX
8
0
10
1635
20
2159
0
VERTEX
8
0
10
2115
20
2159
0
VERTEX
8
0
10
2115
20
2199
0
VERTEX
8
0
10
1635
20
2199
0
SEQEND
0
POLYLINE
8
0
62
255
66
1
40
1
41
1
0
VERTEX
8
0
10
1635
20
2159
0
VERTEX
8
0
10
1635
20
2139
0
VERTEX
8
0
10
1835
20
2139
0
VERTEX
8
0
10
1835
20
2119
0
VERTEX
8
0
10
2115
20
2119
0
VERTEX
8
0
10
2115
20
2159
0
VERTEX
8
0
10
1635
20
2159
0
SEQEND
0
POLYLINE
8
0
62
255
66
1
40
1
41
1
0
VERTEX
8
0
10
1835
20
2079
0
VERTEX
8
0
10
1835
20
2039
0
VERTEX
8
0
10
2115
20
2039
0
VERTEX
8
0
10
2115
20
2079
0
VERTEX
8
0
10
1835
20
2079
0
SEQEND
0
POLYLINE
8
0
62
255
66
1
40
1
41
1
0
VERTEX
8
0
10
1835
20
1999
0
VERTEX
8
0
10
1835
20
1979
0
VERTEX
8
0
10
2115
20
1979
0
VERTEX
8
0
10
2115
20
1999
0
VERTEX
8
0
10
1835
20
1999
0
SEQEND
0
POLYLINE
8
0
62
255
66
1
40
1
41
1
0
VERTEX
8
0
10
1835
20
2039
0
VERTEX
8
0
10
1835
20
1999
0
VERTEX
8
0
10
2115
20
1999
0
VERTEX
8
0
10
2115
20
2039
0
VERTEX
8
0
10
1835
20
2039
0
SEQEND
0
POLYLINE
8
0
62
255
66
1
40
1
41
1
0
VERTEX
8
0
10
1835
20
2119
0
VERTEX
8
0
10
1835
20
2079
0
VERTEX
8
0
10
2115
20
2079
0
VERTEX
8
0
10
2115
20
2119
0
VERTEX
8
0
10
1835
20
2119
0
SEQEND
0
POLYLINE
8
0
62
254
66
1
40
1
41
1
0
VERTEX
8
0
10
2115
20
1979
0
VERTEX
8
0
10
1835
20
1979
0
VERTEX
8
0
10
1835
20
1939
0
VERTEX
8
0
10
2115
20
1939
0
VERTEX
8
0
10
2115
20
1979
0
SEQEND
0
POLYLINE
8
0
62
254
66
1
40
1
41
1
0
VERTEX
8
0
10
2115
20
1919
0
VERTEX
8
0
10
2115
20
1939
0
VERTEX
8
0
10
1835
20
1939
0
VERTEX
8
0
10
1835
20
1919
0
VERTEX
8
0
10
2115
20
1919
0
SEQEND
0
POLYLINE
8
0
62
254
66
1
40
1
41
1
0
VERTEX
8
0
10
2115
20
1859
0
VERTEX
8
0
10
2115
20
1879
0
VERTEX
8
0
10
1835
20
1879
0
VERTEX
8
0
10
1835
20
1859
0
VERTEX
8
0
10
2115
20
1859
0
SEQEND
0
POLYLINE
8
0
62
254
66
1
40
1
41
1
0
VERTEX
8
0
10
2115
20
1879
0
VERTEX
8
0
10
2115
20
1919
0
VERTEX
8
0
10
1835
20
1919
0
VERTEX
8
0
10
1835
20
1879
0
VERTEX
8
0
10
2115
20
1879
0
SEQEND
0
POLYLINE
8
0
62
254
66
1
40
1
41
1
0
VERTEX
8
0
10
2115
20
1779
0
VERTEX
8
0
10
2115
20
1819
0
VERTEX
8
0
10
1835
20
1819
0
VERTEX
8
0
10
1835
20
1779
0
VERTEX
8
0
10
2115
20
1779
0
SEQEND
0
POLYLINE
8
0
62
254
66
1
40
1
41
1
0
VERTEX
8
0
10
2115
20
1739
0
VERTEX
8
0
10
2115
20
1779
0
VERTEX
8
0
10
1835
20
1779
0
VERTEX
8
0
10
1835
20
1739
0
VERTEX
8
0
10
2115
20
1739
0
SEQEND
0
POLYLINE
8
0
62
254
66
1
40
1
41
1
0
VERTEX
8
0
10
2115
20
1819
0
VERTEX
8
0
10
2115
20
1859
0
VERTEX
8
0
10
1835
20
1859
0
VERTEX
8
0
10
1835
20
1819
0
VERTEX
8
0
10
2115
20
1819
0
SEQEND
0
POLYLINE
8
0
62
254
66
1
40
1
41
1
0
VERTEX
8
0
10
2115
20
1500
0
VERTEX
8
0
10
2115
20
1519
0
VERTEX
8
0
10
1835
20
1519
0
VERTEX
8
0
10
1835
20
1500
0
VERTEX
8
0
10
2115
20
1500
0
SEQEND
0
POLYLINE
8
0
62
254
66
1
40
1
41
1
0
VERTEX
8
0
10
2115
20
1519
0
VERTEX
8
0
10
2115
20
1739
0
VERTEX
8
0
10
1835
20
1739
0
VERTEX
8
0
10
1835
20
1519
0
VERTEX
8
0
10
2115
20
1519
0
SEQEND
0
POLYLINE
8
0
62
254
66
1
40
1
41
1
0
VERTEX
8
0
10
1835
20
1440
0
VERTEX
8
0
10
1835
20
1420
0
VERTEX
8
0
10
2115
20
1420
0
VERTEX
8
0
10
2115
20
1440
0
VERTEX
8
0
10
1835
20
1440
0
SEQEND
0
POLYLINE
8
0
62
254
66
1
40
1
41
1
0
VERTEX
8
0
10
1835
20
1460
0
VERTEX
8
0
10
1835
20
1440
0
VERTEX
8
0
10
2115
20
1440
0
VERTEX
8
0
10
2115
20
1460
0
VERTEX
8
0
10
1835
20
1460
0
SEQEND
0
POLYLINE
8
0
62
254
66
1
40
1
41
1
0
VERTEX
8
0
10
1835
20
1360
0
VERTEX
8
0
10
1835
20
1340
0
VERTEX
8
0
10
2115
20
1340
0
VERTEX
8
0
10
2115
20
1360
0
VERTEX
8
0
10
1835
20
1360
0
SEQEND
0
POLYLINE
8
0
62
254
66
1
40
1
41
1
0
VERTEX
8
0
10
1835
20
1380
0
VERTEX
8
0
10
1835
20
1360
0
VERTEX
8
0
10
2115
20
1360
0
VERTEX
8
0
10
2115
20
1380
0
VERTEX
8
0
10
1835
20
1380
0
SEQEND
0
POLYLINE
8
0
62
254
66
1
40
1
41
1
0
VERTEX
8
0
10
1835
20
1400
0
VERTEX
8
0
10
1835
20
1380
0
VERTEX
8
0
10
2115
20
1380
0
VERTEX
8
0
10
2115
20
1400
0
VERTEX
8
0
10
1835
20
1400
0
SEQEND
0
POLYLINE
8
0
62
254
66
1
40
1
41
1
0
VERTEX
8
0
10
1835
20
1420
0
VERTEX
8
0
10
1835
20
1400
0
VERTEX
8
0
10
2115
20
1400
0
VERTEX
8
0
10
2115
20
1420
0
VERTEX
8
0
10
1835
20
1420
0
SEQEND
0
POLYLINE
8
0
62
254
66
1
40
1
41
1
0
VERTEX
8
0
10
1835
20
1300
0
VERTEX
8
0
10
1835
20
1280
0
VERTEX
8
0
10
2115
20
1280
0
VERTEX
8
0
10
2115
20
1300
0
VERTEX
8
0
10
1835
20
1300
0
SEQEND
0
POLYLINE
8
0
62
254
66
1
40
1
41
1
0
VERTEX
8
0
10
1835
20
1320
0
VERTEX
8
0
10
1835
20
1300
0
VERTEX
8
0
10
2115
20
1300
0
VERTEX
8
0
10
2115
20
1320
0
VERTEX
8
0
10
1835
20
1320
0
SEQEND
0
POLYLINE
8
0
62
254
66
1
40
1
41
1
0
VERTEX
8
0
10
1835
20
1240
0
VERTEX
8
0
10
1835
20
1220
0
VERTEX
8
0
10
2115
20
1220
0
VERTEX
8
0
10
2115
20
1240
0
VERTEX
8
0
10
1835
20
1240
0
SEQEND
0
POLYLINE
8
0
62
254
66
1
40
1
41
1
0
VERTEX
8
0
10
1835
20
1260
0
VERTEX
8
0
10
1835
20
1240
0
VERTEX
8
0
10
2115
20
1240
0
VERTEX
8
0
10
2115
20
1260
0
VERTEX
8
0
10
1835
20
1260
0
SEQEND
0
POLYLINE
8
0
62
254
66
1
40
1
41
1
0
VERTEX
8
0
10
1835
20
1280
0
VERTEX
8
0
10
1835
20
1260
0
VERTEX
8
0
10
2115
20
1260
0
VERTEX
8
0
10
2115
20
1280
0
VERTEX
8
0
10
1835
20
1280
0
SEQEND
0
POLYLINE
8
0
62
254
66
1
40
1
41
1
0
VERTEX
8
0
10
1835
20
1340
0
VERTEX
8
0
10
1835
20
1320
0
VERTEX
8
0
10
2115
20
1320
0
VERTEX
8
0
10
2115
20
1340
0
VERTEX
8
0
10
1835
20
1340
0
SEQEND
0
POLYLINE
8
0
62
255
66
1
40
1
41
1
0
VERTEX
8
0
10
1835
20
1180
0
VERTEX
8
0
10
1835
20
1160
0
VERTEX
8
0
10
2115
20
1160
0
VERTEX
8
0
10
2115
20
1180
0
VERTEX
8
0
10
1835
20
1180
0
SEQEND
0
POLYLINE
8
0
62
255
66
1
40
1
41
1
0
VERTEX
8
0
10
1835
20
1200
0
VERTEX
8
0
10
1835
20
1180
0
VERTEX
8
0
10
2115
20
1180
0
VERTEX
8
0
10
2115
20
1200
0
VERTEX
8
0
10
1835
20
1200
0
SEQEND
0
POLYLINE
8
0
62
255
66
1
40
1
41
1
0
VERTEX
8
0
10
1835
20
1160
0
VERTEX
8
0
10
1835
20
1120
0
VERTEX
8
0
10
2115
20
1120
0
VERTEX
8
0
10
2115
20
1160
0
VERTEX
8
0
10
1835
20
1160
0
SEQEND
0
POLYLINE
8
0
62
255
66
1
40
1
41
1
0
VERTEX
8
0
10
1835
20
1220
0
VERTEX
8
0
10
1835
20
1200
0
VERTEX
8
0
10
2115
20
1200
0
VERTEX
8
0
10
2115
20
1220
0
VERTEX
8
0
10
1835
20
1220
0
SEQEND
0
POLYLINE
8
0
62
255
66
1
40
1
41
1
0
VERTEX
8
0
10
2115
20
1120
0
VERTEX
8
0
10
1835
20
1120
0
VERTEX
8
0
10
1835
20
740
0
VERTEX
8
0
10
2115
20
740
0
VERTEX
8
0
10
2115
20
1120
0
SEQEND
0
POLYLINE
8
0
62
254
66
1
40
1
41
1
0
VERTEX
8
0
10
1835
20
1460
0
VERTEX
8
0
10
2115
20
1460
0
VERTEX
8
0
10
2115
20
1500
0
VERTEX
8
0
10
1835
20
1500
0
VERTEX
8
0
10
1835
20
1460
0
SEQEND
0
POLYLINE
8
0
62
8
66
1
40
1
41
1
0
VERTEX
8
0
10
2615
20
2099
0
VERTEX
8
0
10
2575
20
2099
0
VERTEX
8
0
10
2575
20
2079
0
VERTEX
8
0
10
2615
20
2079
0
VERTEX
8
0
10
2615
20
2099
0
SEQEND
0
POLYLINE
8
0
62
254
66
1
40
1
41
1
0
VERTEX
8
0
10
2515
20
2059
0
VERTEX
8
0
10
2515
20
2039
0
VERTEX
8
0
10
2475
20
2039
0
VERTEX
8
0
10
2475
20
2019
0
VERTEX
8
0
10
2475
20
1999
0
VERTEX
8
0
10
2955
20
1999
0
VERTEX
8
0
10
2955
20
2019
0
VERTEX
8
0
10
2955
20
2039
0
VERTEX
8
0
10
2915
20
2039
0
VERTEX
8
0
10
2915
20
2059
0
VERTEX
8
0
10
2895
20
2059
0
VERTEX
8
0
10
2895
20
2039
0
VERTEX
8
0
10
2535
20
2039
0
VERTEX
8
0
10
2535
20
2059
0
VERTEX
8
0
10
2515
20
2059
0
SEQEND
0
POLYLINE
8
0
62
254
66
1
40
1
41
1
0
VERTEX
8
0
10
2475
20
1999
0
VERTEX
8
0
10
2475
20
2019
0
VERTEX
8
0
10
2455
20
2019
0
VERTEX
8
0
10
2455
20
1999
0
VERTEX
8
0
10
2435
20
1999
0
VERTEX
8
0
10
2435
20
1979
0
VERTEX
8
0
10
2415
20
1979
0
VERTEX
8
0
10
2415
20
1939
0
VERTEX
8
0
10
2415
20
1919
0
VERTEX
8
0
10
3015
20
1919
0
VERTEX
8
0
10
3015
20
1939
0
VERTEX
8
0
10
3015
20
1959
0
VERTEX
8
0
10
2995
20
1959
0
VERTEX
8
0
10
2995
20
1999
0
VERTEX
8
0
10
2975
20
1999
0
VERTEX
8
0
10
2975
20
2019
0
VERTEX
8
0
10
2955
20
2019
0
VERTEX
8
0
10
2955
20
1999
0
VERTEX
8
0
10
2475
20
1999
0
SEQEND
0
POLYLINE
8
0
62
255
66
1
40
1
41
1
0
VERTEX
8
0
10
2535
20
2059
0
VERTEX
8
0
10
2535
20
2039
0
VERTEX
8
0
10
2895
20
2039
0
VERTEX
8
0
10
2895
20
2059
0
VERTEX
8
0
10
2855
20
2059
0
VERTEX
8
0
10
2855
20
2079
0
VERTEX
8
0
10
2835
20
2079
0
VERTEX
8
0
10
2795
20
2079
0
VERTEX
8
0
10
2795
20
2099
0
VERTEX
8
0
10
2775
20
2099
0
VERTEX
8
0
10
2775
20
2079
0
VERTEX
8
0
10
2655
20
2079
0
VERTEX
8
0
10
2655
20
2099
0
VERTEX
8
0
10
2615
20
2099
0
VERTEX
8
0
10
2615
20
2079
0
VERTEX
8
0
10
2575
20
2079
0
VERTEX
8
0
10
2555
20
2079
0
VERTEX
8
0
10
2555
20
2059
0
VERTEX
8
0
10
2535
20
2059
0
SEQEND
0
POLYLINE
8
0
62
255
66
1
40
1
41
1
0
VERTEX
8
0
10
2655
20
2079
0
VERTEX
8
0
10
2775
20
2079
0
VERTEX
8
0
10
2775
20
2099
0
VERTEX
8
0
10
2655
20
2099
0
VERTEX
8
0
10
2655
20
2079
0
SEQEND
0
POLYLINE
8
0
62
9
66
1
40
1
41
1
0
VERTEX
8
0
10
2795
20
2099
0
VERTEX
8
0
10
2795
20
2079
0
VERTEX
8
0
10
2835
20
2079
0
VERTEX
8
0
10
2835
20
2099
0
VERTEX
8
0
10
2795
20
2099
0
SEQEND
0
POLYLINE
8
0
62
9
66
1
40
1
41
1
0
VERTEX
8
0
10
2895
20
2059
0
VERTEX
8
0
10
2895
20
2079
0
VERTEX
8
0
10
2855
20
2079
0
VERTEX
8
0
10
2855
20
2059
0
VERTEX
8
0
10
2895
20
2059
0
SEQEND
0
POLYLINE
8
0
62
254
66
1
40
1
41
1
0
VERTEX
8
0
10
2395
20
1939
0
VERTEX
8
0
10
2395
20
1899
0
VERTEX
8
0
10
3035
20
1899
0
VERTEX
8
0
10
3035
20
1919
0
VERTEX
8
0
10
3035
20
1939
0
VERTEX
8
0
10
3015
20
1939
0
VERTEX
8
0
10
3015
20
1919
0
VERTEX
8
0
10
2415
20
1919
0
VERTEX
8
0
10
2415
20
1939
0
VERTEX
8
0
10
2395
20
1939
0
SEQEND
0
POLYLINE
8
0
62
252
66
1
40
1
41
1
0
VERTEX
8
0
10
2375
20
1859
0
VERTEX
8
0
10
2355
20
1859
0
VERTEX
8
0
10
2355
20
1799
0
VERTEX
8
0
10
2375
20
1799
0
VERTEX
8
0
10
2375
20
1859
0
SEQEND
0
POLYLINE
8
0
62
254
66
1
40
1
41
1
0
VERTEX
8
0
10
2375
20
1899
0
VERTEX
8
0
10
2375
20
1859
0
VERTEX
8
0
10
2635
20
1859
0
VERTEX
8
0
10
2655
20
1859
0
VERTEX
8
0
10
2655
20
1879
0
VERTEX
8
0
10
2735
20
1879
0
VERTEX
8
0
10
2735
20
1859
0
VERTEX
8
0
10
2775
20
1859
0
VERTEX
8
0
10
3035
20
1859
0
VERTEX
8
0
10
3035
20
1879
0
VERTEX
8
0
10
3035
20
1899
0
VERTEX
8
0
10
2395
20
1899
0
VERTEX
8
0
10
2375
20
1899
0
SEQEND
0
POLYLINE
8
0
62
254
66
1
40
1
41
1
0
VERTEX
8
0
10
2375
20
1799
0
VERTEX
8
0
10
2355
20
1799
0
VERTEX
8
0
10
2355
20
1739
0
VERTEX
8
0
10
2595
20
1739
0
VERTEX
8
0
10
2595
20
1799
0
VERTEX
8
0
10
2375
20
1799
0
SEQEND
0
POLYLINE
8
0
62
254
66
1
40
1
41
1
0
VERTEX
8
0
10
2375
20
1859
0
VERTEX
8
0
10
2375
20
1799
0
VERTEX
8
0
10
2595
20
1799
0
VERTEX
8
0
10
2595
20
1819
0
VERTEX
8
0
10
2615
20
1819
0
VERTEX
8
0
10
2615
20
1839
0
VERTEX
8
0
10
2635
20
1839
0
VERTEX
8
0
10
2635
20
1859
0
VERTEX
8
0
10
2375
20
1859
0
SEQEND
0
POLYLINE
8
0
62
254
66
1
40
1
41
1
0
VERTEX
8
0
10
2355
20
1679
0
VERTEX
8
0
10
2375
20
1679
0
VERTEX
8
0
10
2375
20
1639
0
VERTEX
8
0
10
2375
20
1619
0
VERTEX
8
0
10
2395
20
1619
0
VERTEX
8
0
10
2395
20
1579
0
VERTEX
8
0
10
2395
20
1559
0
VERTEX
8
0
10
2415
20
1559
0
VERTEX
8
0
10
2415
20
1519
0
VERTEX
8
0
10
2435
20
1519
0
VERTEX
8
0
10
2435
20
1500
0
VERTEX
8
0
10
2455
20
1500
0
VERTEX
8
0
10
2455
20
1519
0
VERTEX
8
0
10
2795
20
1519
0
VERTEX
8
0
10
2795
20
1539
0
VERTEX
8
0
10
2775
20
1539
0
VERTEX
8
0
10
2775
20
1559
0
VERTEX
8
0
10
2755
20
1559
0
VERTEX
8
0
10
2755
20
1579
0
VERTEX
8
0
10
2735
20
1579
0
VERTEX
8
0
10
2735
20
1599
0
VERTEX
8
0
10
2695
20
1599
0
VERTEX
8
0
10
2695
20
1619
0
VERTEX
8
0
10
2675
20
1619
0
VERTEX
8
0
10
2675
20
1639
0
VERTEX
8
0
10
2655
20
1639
0
VERTEX
8
0
10
2655
20
1679
0
VERTEX
8
0
10
2635
20
1679
0
VERTEX
8
0
10
2635
20
1699
0
VERTEX
8
0
10
2615
20
1699
0
VERTEX
8
0
10
2615
20
1739
0
VERTEX
8
0
10
2595
20
1739
0
VERTEX
8
0
10
2355
20
1739
0
VERTEX
8
0
10
2355
20
1679
0
SEQEND
0
POLYLINE
8
0
62
251
66
1
40
1
41
1
0
VERTEX
8
0
10
2375
20
1679
0
VERTEX
8
0
10
2355
20
1679
0
VERTEX
8
0
10
2355
20
1639
0
VERTEX
8
0
10
2375
20
1639
0
VERTEX
8
0
10
2375
20
1679
0
SEQEND
0
POLYLINE
8
0
62
252
66
1
40
1
41
1
0
VERTEX
8
0
10
2395
20
1619
0
VERTEX
8
0
10
2375
20
1619
0
VERTEX
8
0
10
2375
20
1579
0
VERTEX
8
0
10
2395
20
1579
0
VERTEX
8
0
10
2395
20
1619
0
SEQEND
0
POLYLINE
8
0
62
255
66
1
40
1
41
1
0
VERTEX
8
0
10
2355
20
1120
0
VERTEX
8
0
10
2335
20
1120
0
VERTEX
8
0
10
2335
20
1080
0
VERTEX
8
0
10
2335
20
1060
0
VERTEX
8
0
10
2355
20
1060
0
VERTEX
8
0
10
2355
20
1020
0
VERTEX
8
0
10
2355
20
1000
0
VERTEX
8
0
10
2375
20
1000
0
VERTEX
8
0
10
2375
20
960
0
VERTEX
8
0
10
2395
20
960
0
VERTEX
8
0
10
2395
20
920
0
VERTEX
8
0
10
2395
20
900
0
VERTEX
8
0
10
2415
20
900
0
VERTEX
8
0
10
2415
20
860
0
VERTEX
8
0
10
2435
20
860
0
VERTEX
8
0
10
2435
20
840
0
VERTEX
8
0
10
2455
20
840
0
VERTEX
8
0
10
2455
20
820
0
VERTEX
8
0
10
2475
20
820
0
VERTEX
8
0
10
2475
20
800
0
VERTEX
8
0
10
2515
20
800
0
VERTEX
8
0
10
2515
20
780
0
VERTEX
8
0
10
2555
20
780
0
VERTEX
8
0
10
2555
20
760
0
VERTEX
8
0
10
2595
20
760
0
VERTEX
8
0
10
2635
20
760
0
VERTEX
8
0
10
2635
20
740
0
VERTEX
8
0
10
2775
20
740
0
VERTEX
8
0
10
2775
20
760
0
VERTEX
8
0
10
2815
20
760
0
VERTEX
8
0
10
2855
20
760
0
VERTEX
8
0
10
2855
20
780
0
VERTEX
8
0
10
2895
20
780
0
VERTEX
8
0
10
2935
20
780
0
VERTEX
8
0
10
2935
20
800
0
VERTEX
8
0
10
2955
20
800
0
VERTEX
8
0
10
2955
20
820
0
VERTEX
8
0
10
2975
20
820
0
VERTEX
8
0
10
2975
20
840
0
VERTEX
8
0
10
2995
20
840
0
VERTEX
8
0
10
2995
20
860
0
VERTEX
8
0
10
3015
20
860
0
VERTEX
8
0
10
3015
20
880
0
VERTEX
8
0
10
3035
20
880
0
VERTEX
8
0
10
3035
20
900
0
VERTEX
8
0
10
3035
20
940
0
VERTEX
8
0
10
3055
20
940
0
VERTEX
8
0
10
3055
20
980
0
VERTEX
8
0
10
3075
20
980
0
VERTEX
8
0
10
3075
20
1000
0
VERTEX
8
0
10
3075
20
1040
0
VERTEX
8
0
10
3075
20
1140
0
VERTEX
8
0
10
2835
20
1140
0
VERTEX
8
0
10
2835
20
1120
0
VERTEX
8
0
10
2835
20
1100
0
VERTEX
8
0
10
2855
20
1100
0
VERTEX
8
0
10
2855
20
1060
0
VERTEX
8
0
10
2835
20
1060
0
VERTEX
8
0
10
2835
20
1040
0
VERTEX
8
0
10
2835
20
1000
0
VERTEX
8
0
10
2815
20
1000
0
VERTEX
8
0
10
2815
20
980
0
VERTEX
8
0
10
2795
20
980
0
VERTEX
8
0
10
2795
20
960
0
VERTEX
8
0
10
2755
20
960
0
VERTEX
8
0
10
2675
20
960
0
VERTEX
8
0
10
2675
20
980
0
VERTEX
8
0
10
2655
20
980
0
VERTEX
8
0
10
2655
20
1000
0
VERTEX
8
0
10
2635
20
1000
0
VERTEX
8
0
10
2635
20
1020
0
VERTEX
8
0
10
2615
20
1020
0
VERTEX
8
0
10
2615
20
1040
0
VERTEX
8
0
10
2595
20
1040
0
VERTEX
8
0
10
2595
20
1080
0
VERTEX
8
0
10
2575
20
1080
0
VERTEX
8
0
10
2575
20
1120
0
VERTEX
8
0
10
2575
20
1140
0
VERTEX
8
0
10
2495
20
1140
0
VERTEX
8
0
10
2455
20
1140
0
VERTEX
8
0
10
2415
20
1140
0
VERTEX
8
0
10
2395
20
1140
0
VERTEX
8
0
10
2395
20
1120
0
VERTEX
8
0
10
2355
20
1120
0
SEQEND
0
POLYLINE
8
0
62
251
66
1
40
1
41
1
0
VERTEX
8
0
10
2355
20
1140
0
VERTEX
8
0
10
2355
20
1120
0
VERTEX
8
0
10
2395
20
1120
0
VERTEX
8
0
10
2395
20
1140
0
VERTEX
8
0
10
2355
20
1140
0
SEQEND
0
POLYLINE
8
0
62
59
66
1
40
1
41
1
0
VERTEX
8
0
10
2415
20
1160
0
VERTEX
8
0
10
2415
20
1140
0
VERTEX
8
0
10
2455
20
1140
0
VERTEX
8
0
10
2455
20
1160
0
VERTEX
8
0
10
2415
20
1160
0
SEQEND
0
POLYLINE
8
0
62
252
66
1
40
1
41
1
0
VERTEX
8
0
10
2355
20
1060
0
VERTEX
8
0
10
2335
20
1060
0
VERTEX
8
0
10
2335
20
1020
0
VERTEX
8
0
10
2355
20
1020
0
VERTEX
8
0
10
2355
20
1060
0
SEQEND
0
POLYLINE
8
0
62
9
66
1
40
1
41
1
0
VERTEX
8
0
10
2375
20
1000
0
VERTEX
8
0
10
2355
20
1000
0
VERTEX
8
0
10
2355
20
960
0
VERTEX
8
0
10
2375
20
960
0
VERTEX
8
0
10
2375
20
1000
0
SEQEND
0
POLYLINE
8
0
62
37
66
1
40
1
41
1
0
VERTEX
8
0
10
2315
20
1120
0
VERTEX
8
0
10
2315
20
1080
0
VERTEX
8
0
10
2335
20
1080
0
VERTEX
8
0
10
2335
20
1120
0
VERTEX
8
0
10
2315
20
1120
0
SEQEND
0
POLYLINE
8
0
62
254
66
1
40
1
41
1
0
VERTEX
8
0
10
3055
20
1839
0
VERTEX
8
0
10
3055
20
1879
0
VERTEX
8
0
10
3035
20
1879
0
VERTEX
8
0
10
3035
20
1859
0
VERTEX
8
0
10
2775
20
1859
0
VERTEX
8
0
10
2775
20
1839
0
VERTEX
8
0
10
2795
20
1839
0
VERTEX
8
0
10
2795
20
1819
0
VERTEX
8
0
10
3055
20
1819
0
VERTEX
8
0
10
3055
20
1839
0
SEQEND
0
POLYLINE
8
0
62
250
66
1
40
1
41
1
0
VERTEX
8
0
10
3055
20
1879
0
VERTEX
8
0
10
3055
20
1919
0
VERTEX
8
0
10
3035
20
1919
0
VERTEX
8
0
10
3035
20
1899
0
VERTEX
8
0
10
3035
20
1879
0
VERTEX
8
0
10
3055
20
1879
0
SEQEND
0
POLYLINE
8
0
62
252
66
1
40
1
41
1
0
VERTEX
8
0
10
3075
20
1839
0
VERTEX
8
0
10
3055
20
1839
0
VERTEX
8
0
10
3055
20
1819
0
VERTEX
8
0
10
3055
20
1779
0
VERTEX
8
0
10
3055
20
1759
0
VERTEX
8
0
10
3075
20
1759
0
VERTEX
8
0
10
3075
20
1839
0
SEQEND
0
POLYLINE
8
0
62
254
66
1
40
1
41
1
0
VERTEX
8
0
10
3055
20
1779
0
VERTEX
8
0
10
3055
20
1819
0
VERTEX
8
0
10
2795
20
1819
0
VERTEX
8
0
10
2795
20
1799
0
VERTEX
8
0
10
2815
20
1799
0
VERTEX
8
0
10
2815
20
1779
0
VERTEX
8
0
10
3055
20
1779
0
SEQEND
0
POLYLINE
8
0
62
254
66
1
40
1
41
1
0
VERTEX
8
0
10
3055
20
1759
0
VERTEX
8
0
10
3055
20
1779
0
VERTEX
8
0
10
2815
20
1779
0
VERTEX
8
0
10
2815
20
1759
0
VERTEX
8
0
10
2835
20
1759
0
VERTEX
8
0
10
2835
20
1739
0
VERTEX
8
0
10
2915
20
1739
0
VERTEX
8
0
10
2955
20
1739
0
VERTEX
8
0
10
2995
20
1739
0
VERTEX
8
0
10
2995
20
1759
0
VERTEX
8
0
10
3035
20
1759
0
VERTEX
8
0
10
3055
20
1759
0
SEQEND
0
POLYLINE
8
0
62
8
66
1
40
1
41
1
0
VERTEX
8
0
10
2835
20
1739
0
VERTEX
8
0
10
2835
20
1759
0
VERTEX
8
0
10
2815
20
1759
0
VERTEX
8
0
10
2815
20
1719
0
VERTEX
8
0
10
2835
20
1719
0
VERTEX
8
0
10
2835
20
1739
0
SEQEND
0
POLYLINE
8
0
62
254
66
1
40
1
41
1
0
VERTEX
8
0
10
2835
20
1739
0
VERTEX
8
0
10
2835
20
1719
0
VERTEX
8
0
10
2875
20
1719
0
VERTEX
8
0
10
2915
20
1719
0
VERTEX
8
0
10
2915
20
1739
0
VERTEX
8
0
10
2835
20
1739
0
SEQEND
0
POLYLINE
8
0
62
8
66
1
40
1
41
1
0
VERTEX
8
0
10
2875
20
1719
0
VERTEX
8
0
10
2835
20
1719
0
VERTEX
8
0
10
2835
20
1699
0
VERTEX
8
0
10
2875
20
1699
0
VERTEX
8
0
10
2875
20
1719
0
SEQEND
0
POLYLINE
8
0
62
251
66
1
40
1
41
1
0
VERTEX
8
0
10
2915
20
1739
0
VERTEX
8
0
10
2915
20
1719
0
VERTEX
8
0
10
2955
20
1719
0
VERTEX
8
0
10
2955
20
1739
0
VERTEX
8
0
10
2915
20
1739
0
SEQEND
0
POLYLINE
8
0
62
252
66
1
40
1
41
1
0
VERTEX
8
0
10
3035
20
1759
0
VERTEX
8
0
10
2995
20
1759
0
VERTEX
8
0
10
2995
20
1739
0
VERTEX
8
0
10
3035
20
1739
0
VERTEX
8
0
10
3035
20
1759
0
SEQEND
0
POLYLINE
8
0
62
254
66
1
40
1
41
1
0
VERTEX
8
0
10
2875
20
1480
0
VERTEX
8
0
10
2855
20
1480
0
VERTEX
8
0
10
2855
20
1500
0
VERTEX
8
0
10
2815
20
1500
0
VERTEX
8
0
10
2815
20
1519
0
VERTEX
8
0
10
2795
20
1519
0
VERTEX
8
0
10
2455
20
1519
0
VERTEX
8
0
10
2455
20
1500
0
VERTEX
8
0
10
2455
20
1480
0
VERTEX
8
0
10
2475
20
1480
0
VERTEX
8
0
10
2475
20
1460
0
VERTEX
8
0
10
2495
20
1460
0
VERTEX
8
0
10
2875
20
1460
0
VERTEX
8
0
10
2875
20
1480
0
SEQEND
0
POLYLINE
8
0
62
250
66
1
40
1
41
1
0
VERTEX
8
0
10
2735
20
1859
0
VERTEX
8
0
10
2735
20
1879
0
VERTEX
8
0
10
2655
20
1879
0
VERTEX
8
0
10
2655
20
1859
0
VERTEX
8
0
10
2735
20
1859
0
SEQEND
0
POLYLINE
8
0
62
252
66
1
40
1
41
1
0
VERTEX
8
0
10
2595
20
1819
0
VERTEX
8
0
10
2595
20
1799
0
VERTEX
8
0
10
2595
20
1739
0
VERTEX
8
0
10
2615
20
1739
0
VERTEX
8
0
10
2615
20
1819
0
VERTEX
8
0
10
2595
20
1819
0
SEQEND
0
POLYLINE
8
0
62
254
66
1
40
1
41
1
0
VERTEX
8
0
10
2635
20
1320
0
VERTEX
8
0
10
2655
20
1320
0
VERTEX
8
0
10
2655
20
1300
0
VERTEX
8
0
10
2675
20
1300
0
VERTEX
8
0
10
2675
20
1320
0
VERTEX
8
0
10
3015
20
1320
0
VERTEX
8
0
10
3015
20
1340
0
VERTEX
8
0
10
2995
20
1340
0
VERTEX
8
0
10
2995
20
1360
0
VERTEX
8
0
10
2975
20
1360
0
VERTEX
8
0
10
2975
20
1340
0
VERTEX
8
0
10
2635
20
1340
0
VERTEX
8
0
10
2635
20
1320
0
SEQEND
0
POLYLINE
8
0
62
254
66
1
40
1
41
1
0
VERTEX
8
0
10
2675
20
1320
0
VERTEX
8
0
10
2675
20
1300
0
VERTEX
8
0
10
3015
20
1300
0
VERTEX
8
0
10
3015
20
1320
0
VERTEX
8
0
10
2675
20
1320
0
SEQEND
0
POLYLINE
8
0
62
254
66
1
40
1
41
1
0
VERTEX
8
0
10
2675
20
1300
0
VERTEX
8
0
10
2675
20
1280
0
VERTEX
8
0
10
2695
20
1280
0
VERTEX
8
0
10
2695
20
1260
0
VERTEX
8
0
10
2715
20
1260
0
VERTEX
8
0
10
2715
20
1280
0
VERTEX
8
0
10
3035
20
1280
0
VERTEX
8
0
10
3035
20
1300
0
VERTEX
8
0
10
3015
20
1300
0
VERTEX
8
0
10
2675
20
1300
0
SEQEND
0
POLYLINE
8
0
62
254
66
1
40
1
41
1
0
VERTEX
8
0
10
2715
20
1260
0
VERTEX
8
0
10
2715
20
1240
0
VERTEX
8
0
10
2735
20
1240
0
VERTEX
8
0
10
2735
20
1220
0
VERTEX
8
0
10
2755
20
1220
0
VERTEX
8
0
10
2755
20
1240
0
VERTEX
8
0
10
3055
20
1240
0
VERTEX
8
0
10
3055
20
1260
0
VERTEX
8
0
10
3035
20
1260
0
VERTEX
8
0
10
2715
20
1260
0
SEQEND
0
POLYLINE
8
0
62
254
66
1
40
1
41
1
0
VERTEX
8
0
10
2715
20
1280
0
VERTEX
8
0
10
2715
20
1260
0
VERTEX
8
0
10
3035
20
1260
0
VERTEX
8
0
10
3035
20
1280
0
VERTEX
8
0
10
2715
20
1280
0
SEQEND
0
POLYLINE
8
0
62
254
66
1
40
1
41
1
0
VERTEX
8
0
10
2755
20
1240
0
VERTEX
8
0
10
2755
20
1220
0
VERTEX
8
0
10
3055
20
1220
0
VERTEX
8
0
10
3055
20
1240
0
VERTEX
8
0
10
2755
20
1240
0
SEQEND
0
POLYLINE
8
0
62
254
66
1
40
1
41
1
0
VERTEX
8
0
10
2575
20
1380
0
VERTEX
8
0
10
2575
20
1360
0
VERTEX
8
0
10
2595
20
1360
0
VERTEX
8
0
10
2595
20
1340
0
VERTEX
8
0
10
2615
20
1340
0
VERTEX
8
0
10
2615
20
1360
0
VERTEX
8
0
10
2975
20
1360
0
VERTEX
8
0
10
2975
20
1380
0
VERTEX
8
0
10
2955
20
1380
0
VERTEX
8
0
10
2575
20
1380
0
SEQEND
0
POLYLINE
8
0
62
254
66
1
40
1
41
1
0
VERTEX
8
0
10
2575
20
1400
0
VERTEX
8
0
10
2575
20
1380
0
VERTEX
8
0
10
2955
20
1380
0
VERTEX
8
0
10
2955
20
1400
0
VERTEX
8
0
10
2935
20
1400
0
VERTEX
8
0
10
2575
20
1400
0
SEQEND
0
POLYLINE
8
0
62
254
66
1
40
1
41
1
0
VERTEX
8
0
10
2575
20
1380
0
VERTEX
8
0
10
2575
20
1400
0
VERTEX
8
0
10
2935
20
1400
0
VERTEX
8
0
10
2935
20
1420
0
VERTEX
8
0
10
2915
20
1420
0
VERTEX
8
0
10
2535
20
1420
0
VERTEX
8
0
10
2535
20
1400
0
VERTEX
8
0
10
2555
20
1400
0
VERTEX
8
0
10
2555
20
1380
0
VERTEX
8
0
10
2575
20
1380
0
SEQEND
0
POLYLINE
8
0
62
254
66
1
40
1
41
1
0
VERTEX
8
0
10
2615
20
1360
0
VERTEX
8
0
10
2615
20
1340
0
VERTEX
8
0
10
2635
20
1340
0
VERTEX
8
0
10
2975
20
1340
0
VERTEX
8
0
10
2975
20
1360
0
VERTEX
8
0
10
2615
20
1360
0
SEQEND
0
POLYLINE
8
0
62
254
66
1
40
1
41
1
0
VERTEX
8
0
10
2515
20
1440
0
VERTEX
8
0
10
2515
20
1420
0
VERTEX
8
0
10
2535
20
1420
0
VERTEX
8
0
10
2915
20
1420
0
VERTEX
8
0
10
2915
20
1440
0
VERTEX
8
0
10
2895
20
1440
0
VERTEX
8
0
10
2895
20
1460
0
VERTEX
8
0
10
2875
20
1460
0
VERTEX
8
0
10
2875
20
1440
0
VERTEX
8
0
10
2515
20
1440
0
SEQEND
0
POLYLINE
8
0
62
254
66
1
40
1
41
1
0
VERTEX
8
0
10
2495
20
1460
0
VERTEX
8
0
10
2495
20
1440
0
VERTEX
8
0
10
2515
20
1440
0
VERTEX
8
0
10
2875
20
1440
0
VERTEX
8
0
10
2875
20
1460
0
VERTEX
8
0
10
2495
20
1460
0
SEQEND
0
POLYLINE
8
0
62
250
66
1
40
1
41
1
0
VERTEX
8
0
10
2535
20
1160
0
VERTEX
8
0
10
2575
20
1160
0
VERTEX
8
0
10
2575
20
1180
0
VERTEX
8
0
10
2535
20
1180
0
VERTEX
8
0
10
2535
20
1160
0
SEQEND
0
POLYLINE
8
0
62
254
66
1
40
1
41
1
0
VERTEX
8
0
10
2575
20
1160
0
VERTEX
8
0
10
2535
20
1160
0
VERTEX
8
0
10
2495
20
1160
0
VERTEX
8
0
10
2495
20
1140
0
VERTEX
8
0
10
2575
20
1140
0
VERTEX
8
0
10
2575
20
1160
0
SEQEND
0
POLYLINE
8
0
62
251
66
1
40
1
41
1
0
VERTEX
8
0
10
2595
20
1120
0
VERTEX
8
0
10
2575
20
1120
0
VERTEX
8
0
10
2575
20
1080
0
VERTEX
8
0
10
2595
20
1080
0
VERTEX
8
0
10
2595
20
1120
0
SEQEND
0
POLYLINE
8
0
62
252
66
1
40
1
41
1
0
VERTEX
8
0
10
2495
20
1160
0
VERTEX
8
0
10
2455
20
1160
0
VERTEX
8
0
10
2455
20
1140
0
VERTEX
8
0
10
2495
20
1140
0
VERTEX
8
0
10
2495
20
1160
0
SEQEND
0
POLYLINE
8
0
62
255
66
1
40
1
41
1
0
VERTEX
8
0
10
2795
20
1200
0
VERTEX
8
0
10
2795
20
1180
0
VERTEX
8
0
10
2795
20
1160
0
VERTEX
8
0
10
2815
20
1160
0
VERTEX
8
0
10
2815
20
1180
0
VERTEX
8
0
10
3075
20
1180
0
VERTEX
8
0
10
3075
20
1200
0
VERTEX
8
0
10
2795
20
1200
0
SEQEND
0
POLYLINE
8
0
62
254
66
1
40
1
41
1
0
VERTEX
8
0
10
2795
20
1180
0
VERTEX
8
0
10
2795
20
1200
0
VERTEX
8
0
10
3075
20
1200
0
VERTEX
8
0
10
3075
20
1220
0
VERTEX
8
0
10
3055
20
1220
0
VERTEX
8
0
10
2755
20
1220
0
VERTEX
8
0
10
2755
20
1200
0
VERTEX
8
0
10
2775
20
1200
0
VERTEX
8
0
10
2775
20
1180
0
VERTEX
8
0
10
2795
20
1180
0
SEQEND
0
POLYLINE
8
0
62
255
66
1
40
1
41
1
0
VERTEX
8
0
10
2815
20
1180
0
VERTEX
8
0
10
2815
20
1160
0
VERTEX
8
0
10
3075
20
1160
0
VERTEX
8
0
10
3075
20
1180
0
VERTEX
8
0
10
2815
20
1180
0
SEQEND
0
POLYLINE
8
0
62
255
66
1
40
1
41
1
0
VERTEX
8
0
10
2815
20
1160
0
VERTEX
8
0
10
2815
20
1120
0
VERTEX
8
0
10
2835
20
1120
0
VERTEX
8
0
10
2835
20
1140
0
VERTEX
8
0
10
3075
20
1140
0
VERTEX
8
0
10
3075
20
1160
0
VERTEX
8
0
10
2815
20
1160
0
SEQEND
0
POLYLINE
8
0
62
251
66
1
40
1
41
1
0
VERTEX
8
0
10
2795
20
980
0
VERTEX
8
0
10
2755
20
980
0
VERTEX
8
0
10
2755
20
960
0
VERTEX
8
0
10
2795
20
960
0
VERTEX
8
0
10
2795
20
980
0
SEQEND
0
POLYLINE
8
0
62
250
66
1
40
1
41
1
0
VERTEX
8
0
10
2815
20
1040
0
VERTEX
8
0
10
2815
20
1000
0
VERTEX
8
0
10
2835
20
1000
0
VERTEX
8
0
10
2835
20
1040
0
VERTEX
8
0
10
2815
20
1040
0
SEQEND
0
POLYLINE
8
0
62
250
66
1
40
1
41
1
0
VERTEX
8
0
10
2755
20
980
0
VERTEX
8
0
10
2675
20
980
0
VERTEX
8
0
10
2675
20
960
0
VERTEX
8
0
10
2755
20
960
0
VERTEX
8
0
10
2755
20
980
0
SEQEND
0
POLYLINE
8
0
62
27
66
1
40
1
41
1
0
VERTEX
8
0
10
3075
20
1220
0
VERTEX
8
0
10
3075
20
1260
0
VERTEX
8
0
10
3055
20
1260
0
VERTEX
8
0
10
3055
20
1240
0
VERTEX
8
0
10
3055
20
1220
0
VERTEX
8
0
10
3075
20
1220
0
SEQEND
0
POLYLINE
8
0
62
47
66
1
40
1
41
1
0
VERTEX
8
0
10
3055
20
1260
0
VERTEX
8
0
10
3055
20
1300
0
VERTEX
8
0
10
3035
20
1300
0
VERTEX
8
0
10
3035
20
1280
0
VERTEX
8
0
10
3035
20
1260
0
VERTEX
8
0
10
3055
20
1260
0
SEQEND
0
POLYLINE
8
0
62
254
66
1
40
1
41
1
0
VERTEX
8
0
10
2855
20
1100
0
VERTEX
8
0
10
2835
20
1100
0
VERTEX
8
0
10
2835
20
1060
0
VERTEX
8
0
10
2855
20
1060
0
VERTEX
8
0
10
2855
20
1100
0
SEQEND
0
POLYLINE
8
0
62
8
66
1
40
1
41
1
0
VERTEX
8
0
10
3075
20
1180
0
VERTEX
8
0
10
3075
20
1160
0
VERTEX
8
0
10
3075
20
1140
0
VERTEX
8
0
10
3075
20
1040
0
VERTEX
8
0
10
3095
20
1040
0
VERTEX
8
0
10
3095
20
1180
0
VERTEX
8
0
10
3075
20
1180
0
SEQEND
0
POLYLINE
8
0
62
250
66
1
40
1
41
1
0
VERTEX
8
0
10
3095
20
1040
0
VERTEX
8
0
10
3075
20
1040
0
VERTEX
8
0
10
3075
20
1000
0
VERTEX
8
0
10
3095
20
1000
0
VERTEX
8
0
10
3095
20
1040
0
SEQEND
0
POLYLINE
8
0
62
251
66
1
40
1
41
1
0
VERTEX
8
0
10
3075
20
980
0
VERTEX
8
0
10
3055
20
980
0
VERTEX
8
0
10
3055
20
940
0
VERTEX
8
0
10
3075
20
940
0
VERTEX
8
0
10
3075
20
980
0
SEQEND
0
POLYLINE
8
0
62
9
66
1
40
1
41
1
0
VERTEX
8
0
10
3055
20
900
0
VERTEX
8
0
10
3055
20
940
0
VERTEX
8
0
10
3035
20
940
0
VERTEX
8
0
10
3035
20
900
0
VERTEX
8
0
10
3055
20
900
0
SEQEND
0
POLYLINE
8
0
62
253
66
1
40
1
41
1
0
VERTEX
8
0
10
2895
20
760
0
VERTEX
8
0
10
2895
20
780
0
VERTEX
8
0
10
2855
20
780
0
VERTEX
8
0
10
2855
20
760
0
VERTEX
8
0
10
2895
20
760
0
SEQEND
0
POLYLINE
8
0
62
8
66
1
40
1
41
1
0
VERTEX
8
0
10
2855
20
740
0
VERTEX
8
0
10
2855
20
760
0
VERTEX
8
0
10
2815
20
760
0
VERTEX
8
0
10
2815
20
740
0
VERTEX
8
0
10
2855
20
740
0
SEQEND
0
POLYLINE
8
0
62
252
66
1
40
1
41
1
0
VERTEX
8
0
10
2635
20
740
0
VERTEX
8
0
10
2635
20
760
0
VERTEX
8
0
10
2595
20
760
0
VERTEX
8
0
10
2595
20
740
0
VERTEX
8
0
10
2635
20
740
0
SEQEND
0
POLYLINE
8
0
62
254
66
1
40
1
41
1
0
VERTEX
8
0
10
2815
20
760
0
VERTEX
8
0
10
2775
20
760
0
VERTEX
8
0
10
2775
20
740
0
VERTEX
8
0
10
2815
20
740
0
VERTEX
8
0
10
2815
20
760
0
SEQEND
0
POLYLINE
8
0
62
9
66
1
40
1
41
1
0
VERTEX
8
0
10
2395
20
920
0
VERTEX
8
0
10
2395
20
960
0
VERTEX
8
0
10
2375
20
960
0
VERTEX
8
0
10
2375
20
920
0
VERTEX
8
0
10
2395
20
920
0
SEQEND
0
ENDSEC
0
EOF
